Creedence Clearwater Revival - Down On The Corner Chords & Tabs

 

Down On The Corner Chords & Tabs

Creedence Clearwater Revival Chords & Tabs

Version: 2 Type: Tab 3 ratings
1 star 2 stars 3 stars 4 stars 5 stars
comments

Down On The Corner Tab

Down On The Corner
Creedence Clearwater Revival
The Best of CCR (UK Edition)

Intro:
E:-------------------------|
B:-------------------------|
G:-------------------------| 2x
D:-------------------------| Times
A:-3-0---3-3-0-----2-3-3---|
E:-----3-------3-3---------|

E:-------------------------|
B:-------------------------|
G:-------------------------|
D:-3-0---3-3-0-----2-5-5---|
A:-----3-------3-3---------|
E:-------------------------|

E:-------------------------|
B:-------------------------|
G:-------------------------|
D:-------------------------| 
A:-3-0---3-3-0-----2-3-3---|
E:-----3-------3-3---------|
[ Tab from: http://www.guitartabs.cc/tabs/c/creedence_clearwater_revival/down_on_the_corner_tab_ver_2.html ]
First Verse:
E:-------------------------|
B:-------------------------|
G:-------------------------| 2x
D:-------------------------| Times
A:-3-0---3-3-0-----2-3-3---|
E:-----3-------3-3---------|

E:-------------------------|
B:-------------------------|
G:-------------------------|
D:-3-0---3-3-0-----2-5-5---|
A:-----3-------3-3---------|
E:-------------------------|

E:-------------------------|
B:-------------------------|
G:-------------------------|
D:-------------------------| 
A:-3-0---3-3-0-----2-3-3---|
E:-----3-------3-3---------|

Chorus:
E:-------------------------|
B:-------------------------|
G:-------------------------|2x
D:-------------------------|Times
A:-3-3-3-------2-2-2-3-3-3-|
E:-------0-0-0-------------|
Comments