Creedence Clearwater Revival - Down On The Corner Chords & Tabs

 

Down On The Corner Chords & Tabs

Creedence Clearwater Revival Chords & Tabs

Version: 1 Type: Tab 0 ratings
1 star 2 stars 3 stars 4 stars 5 stars
comments

Down On The Corner Tab

                    Down on the Corner by CCR(Dan k)


[ Tab from: http://www.guitartabs.cc/tabs/c/creedence_clearwater_revival/down_on_the_corner_tab.html ]
        Its not much of a difference but may clear up a few begginers 
on how to play it.
  This is #1 riff
-------------------------------------------------------
-------------------------------------------------------Play #1 riff
-------------------------------------------------------twice,then #2
------------------------------------------------------- once,then #1 
------3---0---------3----3-----0-----------2---3-------once
---------------3-------------------3--3----------------
This is #2 riff
-------------------------------------------------------
-------------------------------------------------------
-------------------------------------------------------
----3---0----------3----3---0---------------2----5---5-
--------------3-------------------3-----3--------------
-------------------------------------------------------


Chourus-
--------------------------------------------------
--------------------------------------------------play twice for 1
--------------------------------------------------chorus
--------------------------2-----------------------
----------3---3---3---------------------3---3-----
-1---1-------------------------3---3--------------



RYTHM SECTION:

bar chords used:  Listen to the changes of teh chord shapes on the 
  #1    #2   #3   cd. The strokes are d,u,d,u,u,u,d.
E 8     10    8
a 10    10    8
d 10    12    10    EMAIL ME AT: dkrug86@yahoo.com
g 9     12    10
b 8     12    10
e 8     10    8

Comments