Creed - Young Grow Old Chords & Tabs

 

Young Grow Old Chords & Tabs

Creed Chords & Tabs

Version: 2 Type: Tab 0 ratings
1 star 2 stars 3 stars 4 stars 5 stars
comments

Young Grow Old Tab

Band- Creed
Song- Young Grow Old

Intro:
|------------------------------------------------------------------|
|------------------------------------------------------------------|
|---------------------------------8\7-7-7-8\7-7-7-8\7-7-7-7-7------|
|----x-1-0-0-0-1-0-0-0-1-0-0-0----x-x-x-x-x-x-x-x-x-x-x-x-x-x------|
|----x-1-0-0-0-1-0-0-0-1-0-0-0----6\5-5-5-6\5-5-5-6\5-5-5-5-5------|
|----x-1-0-0-0-1-0-0-0-1-0-0-0-------------------------------------|
   pm |------------------------------------------------------------|

Chorus:
|----------------------------------------------|
|----------------------------------------------|
|---7------9\10-12-----5\7-9---4\5-7-----------|
|-0-x--00--x-x---x--0--x-x-x---x-x-x---0-0-3-0-|
|-0-5--00--7\8--10--0--3\5-7-x-2\3-5---0-0-3-0-|
|-0----00-----------0--------x---------0-0-3-0-|
                                   pm |---|
Verse:
-------------------------|
-------------------------|
-------------------------|
-------3-0-0-3-0--3-0~---|
-------3-0-0-3-0--3-0~---|
-------3-0-0-3-0--3-0~---|
pm    |-----| |----------|    let ring

2 times and then:
|----------------------------------------------------------------|
|------------------------------13/15-15-17-18-15-20-20-20\-------|
|------------------------------12/14-14-16-17-14-19-19-19\-------|
|----------------------------------------------------------------|
|----0-0-0-0--0-0-0-0--0-0-0-0-----------------------------------|
|----0-0-0-0--0-0-0-0--0-0-0-0-----------------------------------|
pm|--------------------------------------------------------------|

-----------------------------------|
-----5-5-5/-4-4-4-4-3--------------|
-----5-5-5/-4-4-4-4-3--------------|
-----3-3-3/-2-2-2-2-1----x\---0~---|
-------------------------x\---0~---|
-------------------------x\---0~---|

-------------------------|
-------------------------|
-------------------------|
-------3-0-0-3-0--3-0~---|
-------3-0-0-3-0--3-0~---|
-------3-0-0-3-0--3-0~---|
pm    |-----| |----------|    let ring

|----------------------------------------------------------------|
|------------------------------13/15-15-17-18-15-20-20-20\-------|
|------------------------------12/14-14-16-17-14-19-19-19\-------|
|----------------------------------------------------------------|
|----0-0-0-0--0-0-0-0--0-0-0-0-----------------------------------|
|----0-0-0-0--0-0-0-0--0-0-0-0-----------------------------------|
pm|--------------------------------------------------------------|
[ Tab from: http://www.guitartabs.cc/tabs/c/creed/young_grow_old_tab_ver_2.html ]
--------------------------------------------------------------|
--------------------------------------------------------------|
---------------------------------8\7-7-7-8\7-7-7-8\7-7-7-7-7--|
----x-1-0-0-0-1-0-0-0-1-0-0-0----x-x-x-x-x-x-x-x-x-x-x-x-x-x--|
----x-1-0-0-0-1-0-0-0-1-0-0-0----6\5-5-5-6\5-5-5-6\5-5-5-5-5--|
----x-1-0-0-0-1-0-0-0-1-0-0-0---------------------------------|
pm |----------------------------------------------------------|

-------------------------------|
-15-15-16\15-15-15-16\15-15-15-|
--x--x--x--x--x--x-----x--x--x-|
-12-12-13\12-12-12-13\12-12-12-|
-------------------------------|
-------------------------------|


Chorus:

|----------------------------------------------|
|----------------------------------------------|
|---7------9\10-12-----5\7-9---4\5-7-----------|
|-0-x--00--x-x---x--0--x-x-x---x-x-x---0-0-3-0-|
|-0-5--00--7\8--10--0--3\5-7-x-2\3-5---0-0-3-0-|
|-0----00-----------0--------x---------0-0-3-0-|
                                   pm |---|

---> Second verse and chorus are pretty much the same as first ones.

Bridge:

|-----------------------------------------|
|-----------------------------------------|
|-----------------------------------------|
|----------8-------7---5-----4-----4------|
|----5-5-5-5-5-5-5-5-5-5-5-5-5-5-5-5-5~---|
|----0-0-0---0-0-0---0---0-0---0-0---0~---|
pm  |-----| |-----| |-| |---| |-----------|

sometimes Mark plays:
|------------------------------------------------------------|
|------------------------------------------------------------|
|------------------------------------------------------------|
|-----------8br-----------7br-----5p4-------4-------4--------|
|----5-5-5-------5-5-5--------5--------5-5--5--5-5--5--5~----|
|----0-0-0-------0-0-0--------0--------0-0-----0-0-----0~----|
pm  |-----|     |-----|      |-|      |---|   |--------------|

|-------------------------------|
|-------------------------------|
|-------------------------------|
|-8-8-8-7-7-7-5-4-4-4-4-4-4-4-4-|
|-5-5-5-5-5-5-5-5-5-5-5-5-5-5-5-|
|-0-0-0-0-0-0-0-0-0-0-0-0-0-0-0-|
2 times

-----------------------------------------|
-----------------------------------------|
---------------------7-------7------7----|
--8--8-x-x-7--7-7-5--x--x-x--x--x-x-x----|
--8--8-x-x-7--7-7-5--5--x-x--5--x-x-5----|
--8--8-x-x-7--7-7-5-----x-x-----x-x------|

Play 2x
----------------------------------------------|
----------------------------------------------|
----------------------------------------------|
----0--0-0---2h3-5-3-------2-2----------------|
-------0-0-----------0-3h5-----0-2h3-5-0------|
---0---0-0-------------------------------3-0--|

Chorus again and let the last chord ring
Comments