Creed - Young Grow Old Chords & Tabs

 

Young Grow Old Chords & Tabs

Creed Chords & Tabs

Version: 1 Type: Bass Tab 0 ratings
1 star 2 stars 3 stars 4 stars 5 stars
comments

Young Grow Old Bass Tab

Band- Creed
Song- Young Grow Old
Tuning- Drop D

Intro (0:00)

G|----------------|----------------|
D|----------------|----------------|
A|----------------|-65-5--65-5--65-|
D|-10-0--10-0--10-|----------------|

G|----------------|-------------------|
D|------------5-5-|-----2-2-------0---|
A|----5----5h8----|0h3h5-----0h1h3----|
D|0-0---00--------|-----------------00|

G|-----------------|-------------------|
D|-----------------|-----2-2-------0---|
A|----5------------|0h3h5-----0h1h3----|
D|3-0---00-0h2-5-5-|-----------------00|


Verse (0:16)

G|---------------|----------------|-------------|------------|------------|--------------|
D|---------------|----------------|-------------|------------|------------|--------------|
A|------------55-|-----3h5-5-5----|-------------|55-53h5-5~--|------------|--------------|
D|3-0-0--0--0----|00-0----------3-|3-0-0~-------|------------|00--0~------|12\--3\--0003-|

G|---------------|----------------|----------------|----------------|
D|---------------|----------------|----------------|----------------|
A|----5~-----3h5-|5-----55--3h5---|5555555555555555|5555555555555555|
D|3-0------00----|-00-0----0----0-|----------------|----------------|

G|---------------|---------|
D|---------------|---------|
A|3-3h5p32-2h3-2-|1~----1/-|
D|---------------|---------|

(0:46)

G|-------------|---------------|-------------|-----5----------|
D|-------------|---------------|-------------|--5h7-----2-----|
A|--5~----3h5--|----5---3h5----|-------------|-------3h5------|
D|0-----0------|00-0--0-----00-|00-00-0-0-0-0|0----------0003-|

G|---------------|---------------|----------------|---------------------|
D|---------------|---------------|----------------|---------------------|
A|----5~-----3h5-|x--3h5---53h5--|5555555555555555|---------------------|
D|3-0------00----|--0----x0----0-|----------------|12\-11-11\-10\-9\-8\-|


Bridge (1:06)

G|----------------|----------------|-----------------|
D|----------------|----------------|-----------------|
A|----------------|----------------|-65-5--65-5--6-66|
D|-10-0--10-0--10-|-10-0--10-0--10-|-----------------|


Chorus (1:13)

G|----------------|-----------------|----------------|------------------|
D|------------5-5-|----2-2------0---|------------5-5-|55----------------|
A|----5----5h8----|-3h5------1h3----|----5----5h8----|--5-3-3---5p3-2~--|
D|0-0---00--------|---------------00|3-0---0-0-------|------------------|

G|-----------------|-------------------|----------------|------------------|
D|-----------------|-----2-2-------0---|------------5-5-|55----------------|
A|----5------------|0h3h5-----0h1h3----|----5----5h8----|--5-3-3---5p3-2~--|
D|3-0---00-0h2-5-5-|-----------------00|3-0---0-0-------|------------------|


Verse (1:33)

G|----------|--------------|----------|----------|----------|-------------|
D|----------|--------------|----------|----------|----------|-------------|
A|----5~----|--------------|----5~----|----------|----5~----|---------3h5-|
D|3-0-------|00-00-00-0003-|3-0-------|0~------3-|3-0-------|00-0-0-0-----|

G|------------|--------------|----------|--------------|
D|------------|--------------|----------|--------------|
A|--------3h5-|---3h5-5------|----5~--55|----------3h5-|
D|00-0~-------|0~-------0003-|3-0-------|00-00-0-0-----|
[ Tab from: http://www.guitartabs.cc/tabs/c/creed/young_grow_old_btab.html ]
G|----------------|----------------|
D|----------------|----------------|
A|5555555555555555|-5\-4\-3\-3\-2\-|
D|----------------|0--0--0--0--0---|


Bridge (2:03)

G|----------------|----------------|------------------|
D|----------------|----------------|------------------|
A|----------------|----------------|-65-5-------------|
D|-10-0--10-0--10-|-10-0--10-0--10-|-------10-0--0h1/-|


Chorus(2:11)

G|-----------------|------------------|-----------------|----------------|
D|-----------------|----2-2-------0---|-----------------|----2-----------|
A|----5------------|-3h5-----0h1h3----|----5------------|-3h5-3--5p3-2~--|
D|0-0---00-0h2-5-5-|----------------00|3-0---0-00h2-5-5-|----------------|

G|-----------------|------------------|----------------|-----------------|
D|-----------------|----2-2------0~---|------------5555|-5---------------|
A|----5------------|-3h5-------3------|----5----5h8----|--5-3-3---5p3-2\-|
D|3-0---00-0h2-55--|----------------00|3-0---0-0-------|-----------------|


Bridge(2:31)

G|----------------|----------------|----------------|
D|----------------|----------------|----------------|
A|----------------|----------------|-------65-5--65-|
D|-10-0--10-0--10-|-10-0--10-0-x10-|-10-0-x---------|


Interlude(2:38)

G|--------------|-------------| x3 |--------------|-------------| x2
D|--------------|-------------|    |--------------|-------------|
A|--------------|5555-5555----|    |5555-5555-55~-|-------------|
D|0000-0000-00~-|----------0~-|    |--------------|0000-0000-0~-|

G|--------------|-------------|--------------------------------------------------|
D|--------------|-------------|---------------------------------------------7----|
A|5555----------|-------------|3h55------3h5-5-3/5------5-3h5-55-55----5~-----7\-|
D|-----0000-00~-|0000-0000-0~-|-----00-0-----------00-0-------------0~----00-----|

(3:18)

G|----------------|------------------| x3 |----------------|------|------|
D|----------------|------------------|    |----------------|------|------|
A|111111000000----|55555555555555---0|    |111111000000----|5~----|------|
D|------------5533|--------------035-|    |------------5-3-|------|0~----|

G|------|----------------|----------------|
D|-REST-|----------------|----------------|
A|------|5555555555555555|5555555555555555|
C|------|----------------|----------------|
         ^getting louder

Chorus(3:53)

G|-----------------|------------------|-----------------|-------------------|
D|-----------------|----2-2-------0---|------------55-5-|----22-2-------0---|
A|----5------------|03h5-----0h1h3----|----5----5h8-----|03h5------0h1h3--55|
D|3-0---00-0h2-5-5-|----------------00|3-0---00---------|-------------------|

G|-----------------|------------------|----------------|-------------------|
D|-----------------|------------------|------------5-5-|-----2-2-------0---|
A|8---5------------|-3h53-3--5p3-2~---|----5----5h8----|0h3h5-----0h1h3----|
D|--0---0-00h2-5-5-|------------------|3-0---0-0-------|-----------------00|


Bridge(4:13)

G|----------------|----------------|----------------|------------7-----|------|
D|----------------|----------------|----------------|--------------7---|------|
A|----------------|----------------|-65-5--65-5--65-|----------------5-|------|
D|-10-0--10-0--10-|-10-0--10-0--10-|----------------|-10-0--10-0-------|0~----|
Comments