Creed - Wrong Way Chords & Tabs

 

Wrong Way Chords & Tabs

Creed Chords & Tabs

Version: 2 Type: Tab 0 ratings
1 star 2 stars 3 stars 4 stars 5 stars
comments

Wrong Way Tab

   
###############################
#  Song: Wrong Way             #
#  Artist: Creed               #
# Album: Human Clay            #
# Transcribed: ME!             #
#  Tunning: Drop D             #
###############################

RIFF A
E----------------------------------------------------------------------------------------|
B----------------------------------------------------------------------------------------|
G----------------------------------------------------------------------------------------|
D-------------0-0--------------0-0--------------0-0---------------0-0-----0----0---------|
A-------6-6---------------3-5-------------8-8--------------3-5---------------------------|
D-0-0---------------0-0--------------0-0-------------0-0----------------3-----1----------|

Riff B   
                "Yeah, Yeah"
E-----------------------------|-----------------------------|
B-----------------------------|-----------------------------|
G---5---5--5---5--5--5--5--5--|--4--4---4--4--4--4--4--4----|
D---3---3--3---3--3--3--3--3--|--2--2---2--2--2--2--2--2----|
A---3---3--3---3--3--3--3--3--|--2--2---2--2--2--2--2--2----|
D---3---3--3---3--3--3--3--3--|--2--2---2--2--2--2--2--2----|

Chorus
E---------------------|-------------------|
B---------------------|-------------------|
G-----5-5-5-5-5-5-5-5-|-7--7-7-7-7-7-7-7--|          (HINT: Chorus really is equal to          
D--0--5-5-5-5-5-5-5-5-|-7--7-7-7-7-7-7----|             Chorus, then Riff B, then
A--0--3-3-3-3-3-3-3-3-|-5--5-5-5-5-5-5-5--|              Chorus again, this is just
D--0------------------|-5--5-5-5-5-5-5-5--|               the missing part.)

Riff C

E-------------------------------------------|--------------------------------|
B-------------------------------------------|--------------------------------|
G-------------------------------------------|--------------------------------|
D-------------------------------------------|--------------------------------|
A-------------------------------------------|--------------------------------|
D-0-0-0-12-12-12-0-0-0-11-11-11-12-12-11-11-|-0-0-0-8-8-8-0-0-0-7-7-7-8-8-7-7|
[ Tab from: http://www.guitartabs.cc/tabs/c/creed/wrong_way_tab_ver_2.html ]
E-------------------------------------------|--------------------------------|
B-------------------------------------------|--------------------------------|
G-------------------------------------------|--------------------------------|
D-------------------------------------------|---------8-8-8-----7-----8-7-5--|
A-------------------------------------------|---------8-8-8-----7-----8-7-5--|
D-0-0-0-12-12-12-0-0-0-11-11-11-12-12-11-11-|-0-0-0-8-8-8-8-0-0-7-0-0-8-7-5--|

Riff D
E----------6---------------------|----------0---|----------6---------------------|----------0---|
B------------6-----------------4-|------------3-|------------6-----------------4-|------------3-|
G----8---------8--------5--------|----2---------|----8---------8--------5--------|----2---------|
D------8-------------5-------3---|------0-------|------8-------------5-------3---|------0-------|
A-6---------------3--------------|--------------|-6---------------3--------------|--------------|
D--------------------------1-----|-0------------|--------------------------1-----|-0------------|

E----------6---------------------|----------0---|----------6---------------------|
B------------6-----------------4-|------------3-|------------6-----------------4-|
G----8---------8--------5--------|----2---------|----8---------8--------5--------|
D------8-------------5-------3---|------0-------|------8-------------5-------3---|
A-6---------------3--------------|--------------|-6---------------3--------------|
D--------------------------1-----|-0------------|--------------------------1-----|

Riff E

E--------------|                             
B--------------|
G-------5----7-|
D-0--1--5-0----|
A-0--1--3-0--5-|
D-0--1----0----|                        Song Lay Out:
                                       
					Riff A (9x)
					Riff B
					Riff A
					Riff B
					Riff A (5x)
					Chorus
					Riff C
					Riff D
					Riff E
					Riff B
					Chorus
					Riff B

	**This song may be very confusing to you.  But if you listen to the song, it all makes sense! This is from the Creed 
	Book if any one is curious.  If you have any questions, please e-mail me tamaplayer549@netscape.net!**
Comments