Creed - Wrong Way Chords & Tabs

 

Wrong Way Chords & Tabs

Creed Chords & Tabs

Version: 1 Type: Tab 0 ratings
1 star 2 stars 3 stars 4 stars 5 stars
comments

Wrong Way Tab

Intro-Clean			Repeat  8 times 
e----------------------------------------------------------------------------------------------------------
A---------------------------------------------------------------------------------------------------------
D---------------------------------------------------------------------------------------------------------
G----------------0-0----------------0-0-------------0-0----------------0-0------------0-----------0
B---------6-6-----------------3-5--------------8-8---------------3-5---------------------------------
E--0-0-----------------0-0----------------0-0--------------0-0-----------------3------------1---------
[ Tab from: http://www.guitartabs.cc/tabs/c/creed/wrong_way_tab.html ]
e--------------------------------------------------------------------------
A-------------------------------------------------------------------------
D-------------------------------------------------------------------------
G---------------0-0-----------------0-0--------0--------0--------------
B--------6-6-----------------3-5-----------5-------0-------------------
E--0-0-----------------0-0----------------------------------------------

e----------------------------------------------------------------------------------------------------------
A---------------------------------------------------------------------------------------------------------
D---------------------------------------------------------------------------------------------------------
G--------0----------0-----------0---------0-----------0---------0--------------0-----------0----------
B--8----------8----------8----------8-----------7---------7------------7-----------0-------------------
E---------------------------------------------------------------------------------------------------------

This is what I got. If you have any questions or want the whole song, e-mail me at creedchamber27@aol.com
Comments