Creed - Wrong Way Chords & Tabs

 

Wrong Way Chords & Tabs

Creed Chords & Tabs

Version: 1 Type: Bass Tab 0 ratings
1 star 2 stars 3 stars 4 stars 5 stars
comments

Wrong Way Bass Tab

Band- Creed
Song- Wrong Way

Played in Drop D.

Enter at 0:11
G|--------|
D|--------|
A|--------|
D|-3-1-0--|

Verse:
G|--------------------------------------------|
D|-------0------------------------------------|
A|---6-6-------3H5------3/8----3H5------------|
D|-----------0------0--------0-----0--3-1-0---|

Post verse:
G|------------------------------------------|
D|---------0------0~------------------------|
A|--6-6-------3-5-------/88888888--77777777-|
D|------------------------------------------|
Soft part:
G|-------------------------|
D|-------------------------|
A|-------------------------|
D|----3~ ----2~ -----3-1-0-|

Chorus:
G|------------------------------------|-------------------------------------|
D|------------------------------------|-------------------------------------|
A|----------/3-333H5-3----------5-----|------------3-----------------2-3-5--|
D|--0-0-0-0-----------05-5-5-5----5-4-|-3-3-3-3---3-3--2-2-2-2----22--------|

G|----------------------------------|
D|----------------------------------|
A|----------/3-333H5-3----------5---|
D|--0-0-0-0-----------05-5-5-5----5-|

Post chorus:
G|-----------------------------------------------|
D|-----------------------------------------------|
A|-----555------4445544--------------------------|
D|-000-----000-----------000--888-000-777-88-7---|
[ Tab from: http://www.guitartabs.cc/tabs/c/creed/wrong_way_btab.html ]
G|-----------------------------------------------|
D|-----------------------------------------------|
A|-----555------4445544--------------------------|
D|-000-----000-----------000--888-000-777-8-7-5--|

Bridge:3.01
G|--------------------------------------------------|
D|--------------------------------------------------|
A|--666---33-----------------666--33-----------1/17-|
D|--------------1-1-0~ -----------------1-1-0-------|

G|------------------------------------------|
D|------------------------------------------|
A|--666---33-----------------666--33--------|
D|--------------1-1-0~ -----------------1-1-|

G|-----------------7H8-7--------------7H8-7-------------7/8-------------------|
D|----------------------------------------------------------------------------|
A|-------3-5-------------------3-5----------------3-5---------------3---------|
D|--0-1------------------0-1-----------------0-1--------------0-1------5-4-3--|

E|---------------------------------|
A|---------------------------------|
D|------------3-------------2-3-5--|
G|-3-3-3-3---3-3--2-2-2-2-2--------|

Chorus:
G|---------------------------------|
D|---------------------------------|
A|---------/3-333H5-3---------5----|
D|--0-0-0-0----------05-5-5-5---5--|

E|---------------------------------|
A|---------------------------------|
D|------------3-------------2-3-5--|
G|-3-3-3-3---3-3--2-2-2-2-2--------|

G|---------------------------------|
D|---------------------------------|
A|---------/3-333H5-3---------5----|
D|--0-0-0-0----------05-5-5-5---5--|

G|-------------|
D|-------------|
A|-------------|
D|----3~ -2~ --|
Comments