Creed - With Arms Wide Open Chords & Tabs

 

With Arms Wide Open Chords & Tabs

Creed Chords & Tabs

Version: 8 Type: Tab 0 ratings
1 star 2 stars 3 stars 4 stars 5 stars
comments

With Arms Wide Open Tab

Creed , With Arms Wide Open.
 Tabbed by Brian Burgess, killerb1@intrstar.net.
  
Intro and Verse:

E----------------------------------------------------|
B--0h1---------1------1h3---1-----0h1p0---0h1--------|
G-------0--------0-----------------------------0-----|
D---------0--------0-----------------------------0---|
A--3--------3-------------3----3----------2--------2-|
E----------------------------------------------------|

E-------------------------------------------------|
B--1------1h3----1----0h1p0---0h1---------1-------|
G----0------------------------------0-------0-----|
D------0------------------------------0-------0---|
A--------------2---2----------3---------0---------|
E-------------------------------------------------|

E----------------------------------------------------|
B--0h1p0-----0-----0h1--------1------0h1p0------0----|
G--------0-----0--------0-------0-----------0------0-|
D----------0--------------0-------0-----------0------|
A------------------0--------0------------------------|
E----------------------------------------------------|


Chorus:

E----3--|---3---|--------|---5--|
B----6--|---3---|--------|---5--|
G----5--|---5---|--------|---7--|
D----3--|---5---|---2----|---7--|
A----3--|---3---|---2----|---5--|
E----3--|---x---|---2----|---x--|

Solo:
[ Tab from: http://www.guitartabs.cc/tabs/c/creed/with_arms_wide_open_tab_ver_8.html ]
E--------------------------|------------------------|
B--------5-6----5-6--5~~~--|------5-6----5-6--5~~---|
G---5--7-------------------|-5--7-------------------|
D--------------------------|------------------------|
A--------------------------|------------------------|
E--------------------------|------------------------|

E--------------------------|-----------
B-------5-6/8---6--5--6-5~-|-6-5b6r5-6~-5b6r5-6-8b10-|
G--5--7--------------------|-------------------------|
D--------------------------|-------------------------|
A--------------------------|-------------------------|
E--------------------------|-------------------------|

E-----------------|----------------------|-----------|
B--8--------------|-------5-6--5-6-5~~---|-------5-6-|
G-----------------|--5--7----------------|--5--7-----|
D-----------------|----------------------|-----------|
A-----------------|----------------------|-----------|

E--------------------------------------------------|
B-5-6---5~~~-------5-6/8---6---5--6-5~--6--5b6r5~--|
G-------------5--7---------------------------------|
D--------------------------------------------------|
A--------------------------------------------------|
E--------------------------------------------------|

E---------------------------------------------|
B--6--5b6r5--6---8b10~~~~~--------------------|
G---------------------------------------------|
D---------------------------------------------|
A---------------------------------------------|
E---------------------------------------------|


Outro/Last Chord:

E--0----|
B--1----|
G--0----|
D--3----|
A--3----|
E-------|


"For those about to rock, We Salute You"  AC/DC


E-----------------|----------------------|---- 
:: Ultimate Guitar Archive :: 
http://www.ultimate-guitar.com 

 
Comments