Creed - With Arms Wide Open Chords & Tabs

 

With Arms Wide Open Chords & Tabs

Creed Chords & Tabs

Version: 5 Type: Tab 12 ratings
1 star 2 stars 3 stars 4 stars 5 stars
comments

With Arms Wide Open Tab

   
Artist: CREED
Song/Tab: With Arms Wide Open
Album: Human Clay
Tabbed by: Kris - adidas02987@aol.com


Intro & Verse: 
    Csus2                                        Gsus4
E|---------------------------------------------------------
B|--0h1~--------1--------1h3----1-------0h1p0~---0h1-------
G|-------0--------0----------------0-----------------0-----
D|----------0------------------------------------------0---
A|--3----------3-----3--------3------3-----------2---------
D|---------------------------------------------------------
                                    Am11                  G/A
E|--------------------------------------------------------------
B|--1--1-------3----1------0h1p0----0h1----------1------0h1p0---
G|-------0-----0------0------------------0---------0------------
D|-----------------------------------------0--------------------
A|--2-------2-----2------2----------0--------0-------0----------
D|--------------------------------------------------------------

                    Am11                 G/A
E|---------------------------------------------------------||
B|----------0--------0h1--------1-------0h1p0--------0-----||
G|---0--------0----------0--------0------------0-------0---||
D|-----0-------------------0---------------------0---------||
A|-------0------0----0-------0-------0-------------0-----0-||
D|---------------------------------------------------------||
 

Chorus: [2nd time heavy distortion]
   F5                                     Csus2
E|----------------------------------3—-3-3--3----[3--3—3-------
B|--6—-[6--6--6--6----6--6--6—6]----6—-3-3--3----[3--3—3-------
G|--5—-[5--5--5--5----5--5--5—5]----5—-5-5--5----[5--5—5-------
D|--3—-[3--3--3--3----3--3--3—3]----3-------5----[5--5—5-------
A|--3—-[3--3--3--3----3--3--3—3]------------3----[3--3—3-------
D|--3~-[3--3--3--3----3--3--3—3]-------------------------------
          O-pen, _____    un-der_____ the sun-light_____ 
[ Tab from: http://www.guitartabs.cc/tabs/c/creed/with_arms_wide_open_tab_ver_5.html ]
                         E5 
E|--3--3--3—3]----0------0--[0---0---0---0---0]--0--[0]-------
B|--3--3--3—3]----0------0--[0---0---0---0---0]--0--[0]-------
G|--5--5--5—5]----4------4--[4---4---4---4---4]--4--[4]-------
D|--5--5--5—5]--4-2------2--[2---2---2---2---2]--2--[2]-------
A|--3--3--3—3]-----------2--[2---2---2---2---2]--2--[2]-------
D|-----------------------2--[2---2---2---2---2]--2--[2]-------
             Wel-come   to this place,_____ I’ll show you__ 


  






   Dsus2
E|-5~~~~---------------------------------------------------
B|-5~~~~---------------------------------------------------
G|-7~~~~---------------------------------------------------
D|-7~~~~---------------------------------------------------
A|-5~~~~---------------------------------------------------
D|---------------------------------------------------------
   Ev-’ry - thing                           with arms_ wide


E|-----------------------------------------------------------------------
B|--0h1------1----1h3---1------0h1p0-0h1-------1-----1h3----1------------
G|------0------0------0---0--------------0--------0------------0---------
D|-----------------------------------------0-----------------------------
A|---------3-----------------3---------------2------------2--------------
D|-----------------------------------------------------------------------
  O–pen,____                                with arms_
                         
E|-----------------------------------------------------------------------
B|--0h1p0--0h1-------1-----3p1--------1-----0h1-----1----0h1p0--------0--
G|--------------0-------0-------0--------0------0-----0---------0-------0
D|-----------------0---------------0--------------0----------------0-----
A|-----------------------------------------------------------------------
D|-----------------------------------------------------------------------
   Wide  o–pen__        
                


(THE SECOND VERSE MARK DOES SOME STRUMMING, BUT I DON’T FEEL LIKE PUTTING IT. SORRY)

(REPEAT CHORUS)

Solo: (VERY HEAVY DISTORTION)
                                           
                      Use wah & do 1/4 bend
E|-----------------|-------------------^--------------------
B|-----------------|--------5—-6--5--6--5~~~~~~~~-----5--6--
G|-----------------|.5-5--7-----------------------5-7-------
D|-----5-----------|.---------------------------------------
A|-----3--3~~------|----------------------------------------
D^^^^^^^^^^^^^^^^^^|----------------------------------------
 The bass does this 
 
         Wah w/ 1/4 bend
E|--------^-------------------------------------------------|
B|--5--6--5~~-----5-6/8--6-5-6-5~-6-5~-6-5~-6-8b(10)-8------|
G|-----------5--7------------------------------------------.|
D|---------------------------------------------------------.|
A|----------------------------------------------------------|
D|----------------------------------------------------------|
Comments