Creed - With Arms Wide Open Chords & Tabs

 

With Arms Wide Open Chords & Tabs

Creed Chords & Tabs

Version: 4 Type: Tab 1 rating
1 star 2 stars 3 stars 4 stars 5 stars
comments

With Arms Wide Open Tab

   
Im not sure if this is very accurate or not but it sounds good to me.

  Drop D tuning
Part A
E|--------------------------------------------------------------------
B|-0h1------1---1h3-1-0h1p0--0h1-----1---1h3-1-0h1p0-0h1-----1---0h1p0
G|------0------------------------0-----------------------0------------
D|--------0------------------------0-----------------------0----------
A|-3----------3-------2------2---------2-------0-----0---------0------
E|--------------------------------------------------------------------

E---------------------------------------------------------------------
B---0----0h1p0-0h1------1---0h1-----0---0h1p0-0h1-----1---0h1p0-------
G------------------0------------0-----------------0-------------0---0-
D--------------------0------------------------------0-----------------
A-0---0-------------------0-------0---0-----------------0---------0---
E---------------------------------------------------------------------

E--------|
B--0h1---|
G--------|
D--------|
A0-------|
E--------|
[ Tab from: http://www.guitartabs.cc/tabs/c/creed/with_arms_wide_open_tab_ver_4.html ]
Part B


E--------------------------------------------------------------------|
B--------------------------------------------------------------------|
G--5----5-5-5-5-5--4----4-4-4-4-4------------------7----7-7-7-7-7----|
D--5----5-5-5-5-5--4----4-4-4-4-4--2----2-2-2-2-2--7----7-7-7-7-7----|
A--3----3-3-3-3-3--2----2-2-2-2-2--2----2-2-2-2-2--5----5-5-5-5-5----|
E----------------------------------2----2-2-2-2-2--------------------|


Solo

E---------------------------------------------------------------------
B-----------3-5-6-5-6-5v-------3-5-6--5--6--5v-------3-5-6-8-6-5-6-5v-
G---5-----5------------------5---------------------5------------------
D---5-----------------------------------------------------------------
A---3-----------------------------------------------------------------
E---------------------------------------------------------------------

E-----------------------|
B-6-5v-6-5v-6-----------|
G---------12b--10v------|
D-----------------------|
A-----------------------|
E-----------------------|
Comments