Creed - With Arms Wide Open Chords & Tabs

 

With Arms Wide Open Chords & Tabs

Creed Chords & Tabs

Version: 12 Type: Tab 0 ratings
1 star 2 stars 3 stars 4 stars 5 stars
comments

With Arms Wide Open Tab

>Author/Artist: Creed
>Title: With arms wide open
>Album: human clay
>
>
>
>---------------|----------------|---------------|-------------|---------------|
>-0h1------1----|-1\3---1-----010|-0h1----1-1----|3---1-----010|---------------|
>----0-------0--|---------0------|----0-------0--|0-----0------|---------------|
>------0--------|----------------|------0--------|-------------|---------------|
>-3------3-----3|-----3-----3----|-2------2-----2|--2-----2----|---------------|
>---------------|----------------|---------------|-------------|---------------|
>
>
>---------------|---------------|----------------|---------------|-------------|
>-0h1------1----|010-------0----|-0h1-------1----|010-------0----|-------------|
>----0-------0--|----0-------0--|-----0-------0--|----0-------0--|-------------|
>------0--------|------0--------|-------0--------|------0--------|-------------|
>-0------0-----0|--------0-----0|-0-------0-----0|--------0-----0|-------------|
>---------------|---------------|----------------|---------------|-------------|
> That is the first verse.
>
>--------3---3-3--3------------0-|-0---0---5--|--------------------------------|
>-6------6---3-3--3------------0-|-0---0---5--|--------------------------------|
>-5------5---5-5--5----------4-4-|-4---4---7--|--------------------------------|
>-3------3--------5------------2-|-2---2---7--|--------------------------------|
>-3---------------3--------------|-2---2---5--|--------------------------------|
>-3------------------------------|-2---2------|--------------------------------|
> That is the first chorus (note it is not strumming pattern)
>
>------------|----------------|--------------|--------------|------------------|
>-0h1-----1--|-1h3---1-----010|-0h1-------1--|-1h3---1---010|------------------|
>-----0-----0|-----0---0------|-----0-------0|---------0----|------------------|
>------------|----------------|-------0------|--------------|------------------|
>-------3----|-----------3----|---------2----|-----2--------|------------------|
>------------|----------------|--------------|--------------|------------------|
>
>
>------------|------------|------------|------------|--------------------------|
>-0h1-----1--|-3h1-----1--|-0h1-----1--|-010-----0--|--------------------------|
>-----0-----0|-----0-----0|-----0-----0|-----0-----0|--------------------------|
>-------0----|-------0----|-------0----|-------0----|--------------------------|
>------------|------------|------------|------------|--------------------------|
>------------|------------|------------|------------|--------------------------|
> that is the little fill inbetween the first chourus and 2nd verse
>
>-0----3-----3-----3----3--3---3---0--0-0-0--------------0--0-3-|--------------|
>-1----3-----1-----1----1--1---1---1--1-1-1--3---3-3-3-3-1--1-1-|--------------|
>-0----0-----0-----0----0--0---0---0--0-0-0--0---0-0-0-0-0--0-0-|--------------|
>-2----0-----2-----2-------2---2---2---------0---0-------2--2-2-|--------------|
>-3----2-----0-------------0---3---3---------2---2-------3--0-0-|--------------|
>---------------------------------------------------------------|--------------|
> That is the 2nd verse,(note,does not show strumming pattern)
>
>------------------------------------------------------------------------------|
>------------------------------------------------------------------------------|
>-----------------5-5-5-55-5-5---------------------7-7-7-7-77-7-7-5-5-5--------|
>-5-55-5-55-55-5--5-5-5-55-5-5-3-4-4-44-4-4-4-44-4-7-7-7-7-77-7-7-5-5-5--------|
>-5-55-5-55-55-5--3-3-3-33-3-3-3-4-4-44-4-4-4-44-4-5-5-5-5-55-5-5-5-5-5--------|
>-3-33-3-33-33-3---------------3-2-2-22-2-2-2-22-2-----------------------------|
> That is the 2nd chorus,use distortion
>
>------------------------------------------------------------------------------|
>------------------------------------------------------------------------------|
>-------------------2------2------2------2-------------------------------------|
>------------------------------------------------------------------------------|
>--0---------------------------------------------------------------------------|
>----------------------------------------------------------15\-----------------|
> this is after the 2nd chorus,right before solo
>
>------------------------------------------------------------------------------|
>-------5-6-5-6-5v--------56-56-5v------5/8-65-65v-65b-65b-6-8v----------------|
>-5-5-7---------------5-7------------57----------------------------------------|
>------------------------------------------------------------------------------|
>------------------------------------------------------------------------------|
>------------------------------------------------------------------------------|

Guitar solo

E:-------------------------------------------------|
B:-------------------------------------------------|
G:----------------------9--10--9--10--9~~~---------|
D:--12b--10~~~--10--12-----------------------------|
A:-------------------------------------------------|
D:-------------------------------------------------|

E:-------------------------------------------------|
B:-------------------------------------------------|
G:---------9--10--9--10--9~~~~------9--10--12------|
D:--10h12-----------------------12-----------------|
A:-------------------------------------------------|
D:-------------------------------------------------|

E:-------------------------------------------------|
B:-------------------------------------------------|
G:--10--9--10--9h10p9--10--9h10p9--10--9h10p9------|
D:-------------------------------------------------|
A:-------------------------------------------------|
D:-------------------------------------------------|

E:-------------------------------------------------|
B:--------------13---13-/////----------------------|
G:--10--9h10p9--12b--12b/////----------------------|
D:-------------------------------------------------|
A:-------------------------------------------------|
D:-------------------------------------------------|

E:----------------------------------------------------|
B:----------------------------------------------------|
G:---------------------------------10------10---------|
D:--10--10--x-x--10----10--12--14------14-------------|
A:--10--10--x-x--10~~~~~~~~~~~~~~~~~~~~~~~~~~~~~~-----|
D:--10--10--x-x--10~~~~~~~~~~~~~~~~~~~~~~~~~~~~~~-----|

E:----------------------------------------------|
B:----------------------------------------------|
G:--------------------------9--10--9--10--------|
D:--9--9--x-x--9----10--12----------------------|
A:--9--9--x-x--9~~~~~~~~~~~~~~~~~~~~~~~~~~~~~~--|
D:--9--9--x-x--9~~~~~~~~~~~~~~~~~~~~~~~~~~~~~~--|

E:----------------------------------------------|
B:----------------------------------------------|
G:--------------------------9--12--10--9--------|
D:--8--8--x-x--8----10--12----------------------|
A:--8--8--x-x--8~~~~~~~~~~~~~~~~~~~~~~~~~~~~~~--|
D:--8--8--x-x--8~~~~~~~~~~~~~~~~~~~~~~~~~~~~~~--|


E:------------------------------------------------------------|
B:--------------------------------------------------13---13---|
G:--10--9h10p9--10--9h10p9--10--9h10p9--10--9h10p9--12b--12b--|
D:--7---7-------7---7-------7---7-------7---7-----------------|
A:--7---7-------7---7-------7---7-------7---7-----------------|
D:--7---7-------7---7-------7---7-------7---7-----------------|

and repeat
[ Tab from: http://www.guitartabs.cc/tabs/c/creed/with_arms_wide_open_tab_ver_12.html ]
Comments