Creed - Whats This Life For Chords & Tabs

 

Whats This Life For Chords & Tabs

Creed Chords & Tabs

Version: 7 Type: Tab 0 ratings
1 star 2 stars 3 stars 4 stars 5 stars
comments

Whats This Life For Tab

   
Song: Whats this life for(acoustic)
Album: My Own Prison
Tuning: E,A,D,G,B,E
Transcriber: PagAn

this is an acoustic live version of What's This Life For. Enjoy.
 
x4
e------------------------0---------------------
B--0h1-----1p0---0-----0---0---3-1-1p0---------
G------0-------2---2-0-------0---------2p0-----
D-------0--------------------------------------
A--------------2-----3---------3---------------
E--3-------------------------------------------

        x2
e--0--|------------------------------------------------------
B--0--|--0h1p0-------0-0h1-----1-------1-0-3-1-0-------0-----
G-----|--------2---2-------0---------0-----------0h3p0---2---
D-----|----------2-----------0---0h2-------------------------
A--0--|----------------3-------------------------------------
E-----|----------------------------------3-------------------


e-----------|------------------
B-----3-0---|--0----0--0-------
G--0--------|------------------
D-----------|------------------
A-----------|--3/5--3--3-2-0---
E--1--------|------------------

 Play
e--0--------------0--------------
B----0--------------0------------
G------5-7-7\10-9-----9-9-7--5---
D--------------------------------
A--------0-0----0-----0-0-0--0---
E--------------------------------

 End with
e---0-----------0-----0-------
B-----0-----------0-----0-----
G-------5-5-4-2-----2-----2---
D-----------------------------
A-------0-0-0-0---------------
E-----------------------------

[ Tab from: http://www.guitartabs.cc/tabs/c/creed/whats_this_life_for_tab_ver_7.html ]
 Verse
       G     D                      B7           C
e------3-3---0-------2-2h3p2---------------2---2-------3-------
B------3-3---------3---------3-------------2---2---------3-----
G------0-0-------2-------------0-----------4---4-----5-----5---
D------0-0-----0---------------------------4---4---5---------0-
A------2-2--------------------------2------------3-------------
E------3-3-----------------------------------------------------

Chorus:
  G       D      B         C
e|3-3-3--2-2-3-2-2-2-2-2-2-3-3-3-3-3
B|3-3-3--3-3-3-3-2-2-2-2-2-3-3-3-3-3
G|0-0-0--2-2-2-2-4-4-4-4-4-5-5-5-5-5
D|0-0-0--0-0-0-0-4-4-4-4-4-5-5-5-5-5
A|2-2-2----------2-2-2-2-2-3-3-3-3-3
E|3-3-3-----------------------------


Interlude:

e|3-x-3-3-x-3-3-3-xx-3-x-3-x-3-x-3-3-3----------------------------------5-5-5-5-5-5
B|3-x-3-3-x-3-3-3-xx-3-x-3-x-3-x-3-3-3--1-1-1-0-0-3-1-0/1-1-1-0-0-3-1-0-3-3-3-3-3-3
G|0-x-0-0-x-0-0-0-xx-0-x-0-x-0-x-0-0-0--0-0-0-0-0-0-0-0-0-0-0-0-0-0-0-0-2-2-2-2-2-2
D|0-x-0-0-x-0-0-0-xx-0-x-0-x-0-x-0-0-0--2-2-2-2-2-2-2-2-2-2-2-2-2-2-2-2-0-0-0-0-0-0
A|2-x-2-2-x-2-2-2-xx-2-x-2-x-2-x-2-2-2--3-3-3-3-3-3-3-3-3-3-3-3-3-3-3-3------------
E|3-x-3-3-x-3-3-3-xx-3-x-3-x-3-x-3-3-3---------------------------------------------

E--------------------3333-3333-3333-3333
B-1-1-1-1-1-1-1-1-1--3333-3333-3333-3333
G-0-0-0-0-0-0-0-0-0--0000-0000-0000-0000
D-2-2-2-2-2-2-2-2-2--0000-0000-0000-0000
A-3-3-3-3-3-3-3-3-3--2222-2222-2222-2222
E--------------------3333-3333-3333-3333 (repeat)
Comments