Creed - Whats This Life For Chords & Tabs

 

Whats This Life For Chords & Tabs

Creed Chords & Tabs

Version: 3 Type: Tab 0 ratings
1 star 2 stars 3 stars 4 stars 5 stars
comments

Whats This Life For Tab

   
X===============================PLEASE NOTE==============================X
X  This tab is all my own and represents my interpretation of the song.  X
X You may only use this tab for private study, scholarship, or research. X
X  Do not change, deface, mutilate, or in any other way alter this tab.  X
X   You must email me first if you want to use this tab on your site.    X
X========================================================================X


*What's This Life For*
Transcribed by Obscured@san.rr.com
Http://home.san.rr.com/obscured


Tuning: E A D G B E


INTRO/VERSE - With slight variations
[ Tab from: http://www.guitartabs.cc/tabs/c/creed/whats_this_life_for_tab_ver_3.html ]
|-3--3--------2-2h3p2-----------2-2-------3-------|
|-3--3------3---------3---------2-2---------3-----|
|-0--0----2-------------2-----4-4-4-----5-----5---|
|-0--0--0-------------------4---------5---------5-|
|-2--2--------------------2---------3-------------|
|-3--3--------------------------------------------|


Then kick in the distortion on these last 2 chords
|-----------|
|-----------|
|-4----5----|
|-4----5----|
|-2----3----|
|-----------|


CHORUS
|---------------------|
|---------------------|
|------7----4----5----|
|-5----7----4----5----|
|-5----5----2----3----|
|-3-------------------|


VERSE 2 - Same


CHORUS 2 - Same


OUTRO
|-3----3----0--0-0--0--0-0--2--3-2--0--0-0--3----3----|
|-3----3----1--0-1--1--0-1--3--3-3--1--0-1--3----3----|
|-0----0----0--0-0--2--2-2--2--2-2--0--0-0--0----0----|
|-0----0----2--2-2--2--2-2--0--0-0--2--2-2--0----0----|
|-2----2----3--3-3--0--0-0----------3--3-3--2----2----|
|-3----3------------------------------------3----3----|

End on
|-3-------|
|-3-------|
|-0-------|
|-0-------|
|-2-------|
|-3-------|

Comments