Creed - Whats This Life For Chords & Tabs

 

Whats This Life For Chords & Tabs

Creed Chords & Tabs

Version: 2 Type: Tab 0 ratings
1 star 2 stars 3 stars 4 stars 5 stars
comments

Whats This Life For Tab

Author/Artist: Creed 
Title: What's This Life For 
Album: My Own Prison 
Transcribed by: ZackMan 
Email: zpc31@yahoo.com 

A really great song, I'm not sure if this is right. 
This is my first tab and I am not familiar with this  
program. 

-|-3-3---------2h3p2-----------2-2---------3-------------3---------2h3p2------ 
-|-3-3-3-----3-------3---------2-2-------5---3-----------3-3-----3-------3---- 
-|-0-0-----2-----------2-----4---------5-------5---------0-----2-----------2-- 
-|-0-0---0-----------------4---------5-----------0-----0-----0---------------- 
-|-2-2-------------------2---------3-----------------2------------------------ 
-|-3-3---------------------------------------------3-------------------------- 
                                                                               

------------------------------------------------------------------------------ 
------------------------------------------------------------------------------ 
--4-4-4-4-4--5-5-5-5---------------------------------------------------------- 
--4-4-4-4-4--5-5-5-5---------------------------------------------------------- 
--2-2-2-2-2--3-3-3-3---------------------------------------------------------- 
------------------------------------------------------------------------------ 
  Verse-^                                                                      
[ Tab from: http://www.guitartabs.cc/tabs/c/creed/whats_this_life_for_tab_ver_2.html ]
-|---------------------------------------------------------------------------- 
-|-------------------------------------*-*------------------------------------ 
-|-------------7-7-7-7--4-4-4-4-4--5-5-5-5------------------------------------ 
-|--5-5-5-5-5--7-7-7-7--4-4-4-4-4--5-5-5-5------------------------------------ 
-|--5-5-5-5-5--5-5-5-5--2-2-2-2-2--3-3-3-3------------------------------------ 
-|--3-3-3-3-3----------------------------------------------------------------- 
  Chorus-^                               *The Last time don't play             

-|-3-3-3-3-3-3-3--0-0-0-0-0-0-0---0-0-0-0-0-0-0---2-2-2-2-2-2-2---0-0-0-0-0-0- 
-|-3-3-3-3-3-3-3--1-1-1-1-1-1-1p0-1-1-1-1-1-1-1p0-3-3-3-3-3-3-3---1-1-1-1-1-1- 
-|-0-0-0-0-0-0-0--0-0-0-0-0-0-0---2-2-2-2-2-2-2---2-2-2-2-2-3-3p2-0-0-0-0-0-0- 
-|-0-0-0-0-0-0-0--2-2-2-2-2-2-2---2-2-2-2-2-2-2---0-0-0-0-0-0-0---2-2-2-2-2-2- 
-|-2-2-2-2-2-2-2--3-3-3-3-3-3-3---0-0-0-0-0-0-0-------------------3-3-3-3-3-3- 
-|-3-3-3-3-3-3-3------------------0-0-0-0-0-0-0------------------------------- 
                                                                               

-0---3-3-3-3-3-3-------------------------------------------------------------- 
-1p0-3-3-3-3-3-3-------------------------------------------------------------- 
-0---0-0-0-0-0-0-------------------------------------------------------------- 
-2---0-0-0-0-0-0-------------------------------------------------------------- 
-3---2-2-2-2-2-2-------------------------------------------------------------- 
-----3-3-3-3-3-3-------------------------------------------------------------- 
  Outro-^           Play Verse:6x Chorus:3x Verse:5x Chorus:3x Outro:6x        


Comments