Creed - Whats This Life For Chords & Tabs

 

Whats This Life For Chords & Tabs

Creed Chords & Tabs

Version: 1 Type: Tab 0 ratings
1 star 2 stars 3 stars 4 stars 5 stars
comments

Whats This Life For Tab

   
#----------------------------------PLEASE NOTE--------------------------------#
#This file is the author's own work and represents their interpretation of the#
#song. You may only use this file for private study, scholarship, or research.#
#-----------------------------------------------------------------------------#

Author/Artist: Creed
Title: What's This Life For 
Album: My Own Prison
Transcribed by: Chris Arnold
Email: webmaster@cagtp.com

This song is easy. It's the new one they have been
playing. 

Chords are G, D, B, C
[ Tab from: http://www.guitartabs.cc/tabs/c/creed/whats_this_life_for_tab.html ]
Intro/Main Riff:
E-3-3-------2h3p2-----------2-2-------3-------|
B-0-0-----3-------3---------2-2---------3-----|
G-0-0---2-----------2-----4---------5-----5---|
D-0-0-0-----------------4---------5---------5-|
A-2-2-----------------2---------3-------------|
E-3-3-----------------------------------------|
                                                                              
Pre-Chorus (you hear it):
E--------|
B--------|
G-4-4--5-|
D-4-4--5-|
A-2-2--3-|
E-2-2--3-|
                                                                              
Chorus:
E---|---|---|---|
B---|---|---|---|
G---|-7-|-4-|-5-|
D-5-|-7-|-4-|-5-|
A-5-|-5-|-2-|-3-|
E-3-|-5-|-2-|-3-|
                                                                              
"But they ain't here anymore..."
E-3-|-0-|-0-|-3-|-3-|-0-|-3-|
B-3-|-1-|-0-|-2-|-3-|-1-|-3-|
G-0-|-0-|-0-|-3-|-2-|-0-|-0-|
D-0-|-2-|-2-|-0-|-2-|-2-|-0-|
A-2-|-3-|-3-|---|---|-3-|-2-|
E-3-|---|---|---|---|---|-3-|

End on a G.
That's it.


 



Comments