Creed - Whats This Life For Chords & Tabs

 

Whats This Life For Chords & Tabs

Creed Chords & Tabs

Version: 2 Type: Bass Tab 0 ratings
1 star 2 stars 3 stars 4 stars 5 stars
comments

Whats This Life For Bass Tab

   
SONG:Whats this life for
BAND:Creed
ALBUM:My own prison
TABBED BY:betrnpippi

this is the way i play whats this life for by Creed im sure its not "exact" but 
its close e-nuff for me.

Standard tuning:(low to high)E-A-D-G

song starts out with the guitar im sure you know where to come in.......

come with these 2 notes:
G---------------
D---------------
A--2--2--3------ play 1x
E---------------

then play this:(the chorus)
G---------------------------------------------------
D--------------------------------------------------- 
A------------5-5-5--5-5--2--2--2--3-3-3--3-5-<======= that last lil 'riff u can
E---3--3--3----------------------------------------    do whatever......

after playing that 3x play this:
G----------------------------------
D----------------------------------
A-------------5-5-5---5-5--2-2--3-- play 1x
E----3--3--3-----------------------

let the last note ring of the above......
then play this after drum fill:
G---------------------------------------
D---------------------------------------
A----------5-5-5/2--2--2-2--3--3--3-3h5- play 7x
E-3--3--3-------------------------------
[ Tab from: http://www.guitartabs.cc/tabs/c/creed/whats_this_life_for_btab_ver_2.html ]
this takes the song to the chorus:
G-----------------------------
D-----------------------------
A----------5-5-5--2-2-2-2-2-3- play 1x
E--3--3--3--------------------

2nd Chorus:
G---------------------------------------------
D--------------------------------------------- 
A------------5-5-5--5-5--2--2--2--3-3-3--3-5-- play 4x
E---3--3--3-----------------------------------   

this ends the chorus:
G----------------------------------
D----------------------------------
A-------------5-5-5---5-5--2-2--3-- play 1x
E----3--3--3-----------------------

Interlude part:("but they 'aint here anymore.....")
G-------------------------------------
D-------------------------------------
A------------------------------------- (continued below)
E--3---3--3-3-3--3-3-3-3-0-3-3--3-3-3-

'continued
G---------------------------------------
D--------------------------5-7-7-7-7p5--
A--0-3--3-3-3--3-5-3-0-0-0------------0- (continued again)
E---------------------------------------

'continued
G----------------------
D----------------------
A--5-5-5-5--5-5h7-5p0-- then start at the beginning of the
E---------------------- interlude

the song ends without an outro just slow down a bit at the end
you'll see what i mean ;-).....

l8a 
e-mail me with request or for any other reason at:
gdrls@juno.com
Comments