Creed - Whats This Life For Acoustic Chords & Tabs

 

Whats This Life For Acoustic Chords & Tabs

Creed Chords & Tabs

Version: 3 Type: Tab

Whats This Life For Acoustic Tab

   
Intro:

e|------------------------0---------------------|
B|--0h1-----1p0---0-----0---0---3-1-1p0---------|
G|------0-------2---2-0-------0---------2p0-----|
D|-------0--------------------------------------|
A|--------------2-----3---------3---------------|
E|--3-------------------------------------------|

e|------------------------0---------------------|
B|--0h1-----1p0---0-----0---0---3-1-1p0---------|
G|------0-------2---2-0-------0---------0h2-----|
D|-------0--------------------------------------|
A|--------------2-----3---------3---------------|
E|--3-------------------------------------------|

e|--0--------------------------------------------------------|
B|--0----0h1p0-------0-0h1-----1-------1-0-3-1-0-------0-----|
G|-------------2---2-------0---------0-----------0h3p0---2---|
D|---------------2-----------0---0h2-------------------------|
A|--0------------------3-------------------------------------|
E|---------------------------------------3-------------------|

e|-----------|--------------------|
B|-----3-0---|--0----0--0-----1---|
G|--0--------|--------------------|
D|-----------|--------------------|
A|-----------|--3/5--3--3-2-0-0---|
E|--1--------|--------------------|

 
e|--0--------------0--------------|
B|----0--------------0------------|
G|------5-7-7\10-9-----9-9-7--5---|
D|--------------------------------|
A|--------0-0----0-----0-0-0--0---|
E|--------------------------------|

e|--0--------------0--------------|
B|----0--------------0------------|
G|------5-7-7\9-9------9-9-7--5---|
D|--------------------------------|
A|--------0-0---0------0-0-0--0---|
E|--------------------------------|

e|---0-----------0-----0-------|
B|-----0-----------0-----0-----|
G|-------5-5-4-2-----2-----2---|
D|-----------------------------|
A|-------0-0-0-0---------------|
E|-----------------------------|


Verse:
[ Tab from: http://www.guitartabs.cc/tabs/c/creed/whats_this_life_for_acoustic_tab_ver_3.html ]
e|--3-3-0--------2-2h3p2------------2-2--------3----------|
B|--3-3--------3---------3----------2-2----------3--------|
G|--0-0------2-------------0------4-4-4------5-----5------|
D|--0-0----0--------------------4---4-4----5---------0----|
A|--2-2-----------------------2----------3----------------|
E|--3-3---------------------------------------------------|

e|--------3-0-------2-2h3p2------------2-2--------3-------|
B|--------3-------3---------3----------2-2----------3-----|
G|--------0-----2-------------0------4-4-4------5-----5---|
D|------0-----0--------------------4---4-4----5---------0-|
A|----2--------------------------2----------3-------------|
E|--3-----------------------------------------------------|


Pre-Chorus:

e|--------3-0-00223220-2222222s3333333-|
B|--------3-3-33333333-2222222s3333333-|
G|--------0-0-00222222-4444444s5555555-|
D|------0---0-00000000-4444444s5555555-|
A|----2----------------2222222s3333333-|
E|--3----------------------------------|


Chorus:                   V- Let that ring the last time  

e|3-3-0-00-223220-2222222s3333333-|
B|3-3-3-33-333333-2222222s3333333-|
G|0-0-0-00-222222-4444444s5555555-|
D|0-0-0-00-000000-4444444s5555555-|
A|2-2-------------2222222s3333333-|
E|3-3-----------------------------|


Interlude:

e|333333-333333--000-00-0-0-0-000-0-0-0-0-0-222222-|
B|333333-333333--111-00-3-1-0-111-0-0-3-1-0-333333-|
G|000000-000000--000-00-0-0-0-222-2-2-2-2-2-222222-|
D|000000-000000--222-22-2-2-2-222-2-2-2-2-2-000000-|
A|222222-222222--333-33-3-3-3-000-0-0-0-0-0--------|
E|333333-333333------------------------------------|

e|-000000000--3333-3333-3333-3333-|
B|-111111111--3333-3333-3333-3333-|
G|-000000000--0000-0000-0000-0000-|
D|-222222222--0000-0000-0000-0000-|
A|-333333333--2222-2222-2222-2222-|
E|------------3333-3333-3333-3333-|

Tabbed by many i have taken som peaces from those that sound right
and mixed them and fixed them so im pretty sure this is
about 100% right 

By Søren T (tmt123@ofir.dk)