Creed - Whats This Life For Acoustic Chords & Tabs

 

Whats This Life For Acoustic Chords & Tabs

Creed Chords & Tabs

Version: 2 Type: Tab 0 ratings
1 star 2 stars 3 stars 4 stars 5 stars
comments

Whats This Life For Acoustic Tab

   
Creed – What’s This Life For (acoustic)

E---------------0-------------------     
B-0-1—1-0-0---0-0--3-1-1-0----------     
G----0----2-2-0---0---------2-0----- X 2 
D-----0-----------------------------     
A---------2---3-----3---------------     
E-3---------------------------------   
[ Tab from: http://www.guitartabs.cc/tabs/c/creed/whats_this_life_for_acoustic_tab_ver_2.html ]
E-0----------------------------------------------------------    
B---0^1^0----0-0^1--1----1-0-3-1-0-----0----3-0-0---0-0------     
G---------2-2-----0-----0---------0^2^0-2-0------------------
D----------2-------0-0^2-------------------------------------  
A-0------------3--------------------------------3/5-3-2/3-0--     
E--------------------------3--------------0------------------  

E--0-----------0--------0----------0--------0--------0--0----
B---0-----------0--------0----------0--------0--------0---0--
G-5--5-7-7/10-9--9-9-7-5--5-7-7/9-9--9-9-7-5--5-5-4-2--2----2
D------------------------------------------------------------
A-0----0-0----0----0-0-0----0-0---0----0-0-0----0-0-0--------
E------------------------------------------------------------

Feel free to contact me via my e-mail (jbi920@aol.com) to correct
me in any way, let me know how you got on with this piece or whatever.
C ya! 

Jamie
Comments