Creed - Whats This Life For Acoustic Chords & Tabs

 

Whats This Life For Acoustic Chords & Tabs

Creed Chords & Tabs

Version: 1 Type: Tab 0 ratings
1 star 2 stars 3 stars 4 stars 5 stars
comments

Whats This Life For Acoustic Tab

Creed - Whats This Life For (acoustic) Intro 
Transribed by Ben Crosswell xport_guzzla@hotmail.com

e---------------0-------------------     
b-0^1--1^0-0---0-0--3-1-1^0---------     
g----0----2-2-0---0---------2^0----- X 2 
d-----0-----------------------------     
a---------2---3-----3---------------     
E-3---------------------------------   
[ Tab from: http://www.guitartabs.cc/tabs/c/creed/whats_this_life_for_acoustic_tab.html ]
e-0----------------------------------------------------------    
b---0^1^0----0-0^1--1----1-0-3-1-0-----0----3-0-0---0-0------     
g---------2-2-----0-----0---------0^2^0-2-0------------------
d----------2-------0-0^2-------------------------------------  
a-0------------3--------------------------------3/5-3-2/3-0--     
E--------------------------3--------------0------------------  

e--0-----------0--------0----------0--------0--------0--0----
b---0-----------0--------0----------0--------0--------0---0--
g-5--5-7-7/10-9--9-9-7-5--5-7-7/9-9--9-9-7-5--5-5-4-2--2----2
d------------------------------------------------------------
a-0----0-0----0----0-0-0----0-0---0----0-0-0----0-0-0--------
E------------------------------------------------------------
Comments