Creed - What S This Life For Chords & Tabs

 

What S This Life For Chords & Tabs

Creed Chords & Tabs

Version: 1 Type: Tab 1 rating
1 star 2 stars 3 stars 4 stars 5 stars
comments

What S This Life For Tab

Song: What’s This Life For                                 Key
Artist: Creed
Album: My Own Prison                                       Pull Off: p
Tuning: EADGBE                                             Hammer On: h
Tabbed By: Ryan Vernon                                     Slide Up: /
Email: ohio_guitar_player15@yahoo.com                      Slide Down: \
                                                           Let Note Ring: ~
This song takes some practice with all the note picking
but it’s worth it because it’s a great song. If you have 
any questions or comments, email me.
________________________________________________________________________________

Intro: Clean

|---3----3----0-------2-2h3p2------------2----2----------3---------|
|---3----3----------3---------3----------2----2------------3-------|
|---0----0--------2-------------0-----4--4----4--------5-----5-----|
|---0----0------0-------------------4----4----4------5---------0---|
|---2----2------------------------2----------------3---------------|
|---3----3---------------------------------------------------------|

|------------3----0-------2-2h3p2------------2----2----------3---------|
|------------3----------3---------3----------2----2------------3-------|
|------------0--------2-------------0-----4--4----4--------5-----5-----|
|---------0---------0-------------------4----4----4------5---------0---|
|------2------------------------------2----------------3---------------|
|---3------------------------------------------------------------------|

Verse: Clean/Distortion
For the verse, repeat the second line of the intro 3.5x clean, followed by this with distortion.

|-----------------------------------------------------|
|---0----0------0------0--0------0--0----0--0---------|
|---0----0------0------0--0------0--0----0--0---------|
|---0----0------0------0--0------0--0----0--0---------|
|---2----2------2------2--3------3--3----3--3--/7\5---|
|-----------------------------------------------------|

Chorus: Distortion

|-----------------------------------------------------------------------------|
|-----------------------------------------------------------------------------|
|---4----4----4------4--4--4--7--7----7----7--7--4--4--4--4-4-4-5-5--5--5-5---|
|---5----5----5------5--5--5--7--7----7----7--7--4--4--4--4-4-4-5-5--5--5-5---|
|---5----5----5------5--5--5--5--5----5----5--5--2--2--2--2-2-2-3-3--3--3-3---|
|---3----3----3------3--3--3--------------------------------------------------|

|--------------------------------------------------------------|
|--------------------------------------------------------------|
|---4--4--4----4-4-4-7-7--7--7-7--4--4--4--4-4-4-5-5--5--5-5---|
|---5--5--5----5-5-5-7-7--7--7-7--4--4--4--4-4-4-5-5--5--5-5---|
|---5--5--5----5-5-5-5-5--5--5-5--2--2--2--2-2-2-3-3--3--3-3---|
|---3--3--3----3-3-3-------------------------------------------|

|----------------------------------------------------------------------|
|----------------------------------------------------------------------|
|---4----4----4------4--4--4--7--7----7----7--7----4----4----4--4--4---|
|---5----5----5------5--5--5--7--7----7----7--7----4----4----4--4--4---|
|---5----5----5------5--5--5--5--5----5----5--5----2----2----2--2--2---|
|---3----3----3------3--3--3-------------------------------------------|

|--------------------------------------------------------------------|
|--------------------------------------------------------------------|
|---5--5----5----5--5--4----4----4------4--4--4--7--7----7----7--7---|
|---5--5----5----5--5--5----5----5------5--5--5--7--7----7----7--7---|
|---3--3----3----3--3--5----5----5------5--5--5--5--5----5----5--5---|
|----------------------3----3----3------3--3--3----------------------|

|----------------------------|
|----------------------------|
|---4----4----4--4--4----5---|
|---4----4----4--4--4----5---|
|---2----2----2--2--2----3---|
|----------------------------|

Interlude: Clean
For the interlude, repeat the intro 1x.

Verse: Clean/Distortion
For the verse, repeat the second line of the intro 2.5x clean, followed by this with distortion.

|-----------------------------------------------------|
|---0----0------0------0--0------0--0----0--0---------|
|---0----0------0------0--0------0--0----0--0---------|
|---0----0------0------0--0------0--0----0--0---------|
|---2----2------2------2--3------3--3----3--3--/7\5---|
|-----------------------------------------------------|

Repeat Chorus: Distortion

Outro: Clean

|---3--------3------3------3--3--------3--3--3----3------3------3------3--3---|
|---3--------3------3------3--3--------3--3--3----3------3------3------3--3---|
|---0--------0------0------0--0--------0--0--0----0------0------0------0--0---|
|---0--------0------0------0--0--------0--0--0----0------0------0------0--0---|
|---2--------2------2------2--2--------2--2--2----2------2------2------2--2---|
|---3--------3------3------3--3--------3--3--3----3------3------3------3--3---|

|---3--3--3--0------0--0--0--0------0--0--0--0----0--0----0----0--0--0--0--0---|
|---3--3--3--1------1--1--1--0------0--0--0—-1p0--0--0----1----1--1--1--1--0---|
|---0--0--0--0------0--0--0--0------0--0--0--0----0--0----2----2--2--2--2--2---|
|---0--0--0--2------2--2--2--2------2--2--2--2----2--2----2----2--2--2--2--2---|
|---2--2--2--3------3--3--3--3------3--3--3--3----3--3----0----0--0--0--0--0---|
|---3--3--3--------------------------------------------------------------------|

|---0--0--0--0----0----2------2--2--2--3------3—-3-—3-—3p2--2--2--2---|
|---0--0--0—-1p0--0----3------3--3--3--3------3--3--3--3----3--3--3---|
|---2--2--2--2----2----2------2--2--2--2------2--2--2--2----2--2--2---|
|---2--2--2--2----2----0------0--0--0--0------0--0--0--0----0--0--0---|
|---0--0--0--0----0---------------------------------------------------|
|---------------------------------------------------------------------|

|---0----0--0--0--0--0--------0--0--0--0----0--0--3--------3--3--3--3---|
|---1----1--1--1--1--0--------0--0--0--1p0--0--0--3--------3--3--3--3---|
|---0----0--0--0--0--0--------0--0--0--0----0--0--0--------0--0--0--0---|
|---2----2--2--2--2--2--------2--2--2--2----2--2--0--------0--0--0--0---|
|---3----3--3--3--3--3--------3--3--3--3----3--3--2--------2--2--2--2---|
|-------------------------------------------------3--------3--3--3--3---|
[ Tab from: http://www.guitartabs.cc/tabs/c/creed/what_s_this_life_for_tab.html ]
|---3--3----3--3--3----3------3--3--3--3--------3--3--3--3--3--3---|
|---3--3----3--3--3----3------3--3--3--3--------3--3--3--3--3--3---|
|---0--0----0--0--0----0------0--0--0--0--------0—-0—-0-—0—-0—-0---|
|---0--0----0--0--0----0------0--0--0--0--------0--0--0--0--0--0---|
|---2--2----2--2--2----2------2--2--2--2--------2--2--2--2--2--2---|
|---3--3----3--3--3----3------3--3--3--3--------3--3--3--3--3--3---|

|---3--------3--3--3--3--------3--3--3--3--3--3--3----3----3--3--3--3---|
|---3--------3--3--3--3--------3--3--3--3--3--3--3----3----3--3--3--3---|
|---0--------0--0--0--0--------0--0--0--0--0--0--0----0----0--0--0--0---|
|---0--------0--0--0--0--------0--0--0--0--0--0--0----0----0--0--0--0---|
|---2--------2--2--2--2--------2--2--2--2--2--2--2----2----2--2--2--2---|
|---3--------3--3--3--3--------3--3--3--3--3--3--3----3----3--3--3--3---|

|---3--3------3--3--3----0--------0--0--0--0--------0--0--0--0----0--0---|
|---3--3------3--3--3----1--------1--1--1--0--------0--0--0—-1p0--0--0---|
|---0--0------0--0—-0----0--------0--0--0--0--------0--0--0--0----0--0---|
|---0--0------0--0--0----2--------2--2--2--2--------2--2--2--2----2--2---|
|---2--2------2--2--2----3--------3--3--3--3--------3--3--3--3----3--3---|
|---3--3------3--3--3----------------------------------------------------|

|---0----0--0------0--0--------0--0--0--0----0--0--2--------2--2--2--3---|
|---0p1--1--1------1--3--------0--0--0--1p0--0--0--3--------3--3--3--3---|
|---2----2--2------2--2--------2--2--2--2----2--2--2--------2--2--2--2---|
|---2----2--2------2--2--------2--2--2--2----2--2--0--------0--0--0--0---|
|---0----0--0------0--0--------0--0--0--0----0--0------------------------|
|------------------------------------------------------------------------|

|---3--3--3—-3p2--2--2----0----0--0--0--0--0--------0--0--0--0----0--0---|
|---3--3--3--3----3--3----1----1--1--1--1--0--------0--0--0—-1p0--0--0---|
|---2--2--2--2----2--2----0----0--0--0--0--0--------0--0--0--0----0--0---|
|-------------------------2----2--2--2--2--2--------2--2--2--2----2--2---|
|-------------------------3----3--3--3--3--3--------3--3--3--3----3--3---|
|------------------------------------------------------------------------|

|---3--------3--3--3--3--------3--3--3--3--3--3--3----3--------3--3--3--3---|
|---3--------3--3--3--3--------3--3--3--3--3--3--3----3--------3--3--3--3---|
|---0--------0--0--0--0--------0--0--0--0--0--0--0----0--------0--0--0--0---|
|---0--------0--0--0--0--------0--0--0--0--0--0--0----0--------0--0--0--0---|
|---2--------2--2--2--2--------2--2--2--2--2--2--2----2--------2—-2-—2-—2---|
|---3--------3--3--3--3--------3--3--3--3--3--3--3----3--------3--3--3--3---|

|---3--3------3--3--3------3--------3--3--3--3--------3--3--3--3--3--3--3---|
|---3--3------3--3--3------3--------3--3--3--3--------3--3--3--3--3--3--3---|
|---0--0------0--0--0------0--------0--0--0--0--------0--0--0--0--0--0--0---|
|---0--0------0--0--0------0--------0--0--0--0--------0--0--0--0--0--0--0---|
|---2--2------2--2--2------2--------2--2--2--2--------2--2--2--2--2--2--2---|
|---3--3------3--3--3------3--------3--3--3--3--------3--3--3--3--3--3--3---|

|---3------3--3--3--3--------3--3--3--3--3--3--3--0----0--0--0--0--0---|
|---3------3--3--3--3--------3--3--3--3--3--3--3--1----1--1--1--1--0---|
|---0------0--0--0--0--------0--0--0--0--0--0--0--0----0--0--0--0--0---|
|---0------0--0--0--0--------0--0--0--0--0--0--0--2----2--2--2--2--2---|
|---2------2--2--2--2--------2--2--2--2--2--2--2--3----3--3--3--3--3---|
|---3------3--3--3--3--------3--3--3--3--3--3--3-----------------------|

|---0--0--0--0----0--0----0----0--0----0--0------0--0--0--0----0--0---|
|---0—-0-—0-—1p0--0--0----0h1--1--0----0--3------0--0--0--1----0--0---|
|---0--0--0--0----0--0----2----2--2----2--2------2--2--2--2----2--2---|
|---2--2--2--2----2--2----2----2--2----2--2------2--2--2--2----2--2---|
|---3--3--3--3----3--3----0----0--0----0--0------0--0--0--0----0—-0---|
|---------------------------------------------------------------------|

|---2--------2--2--2--3--------3—-3-—3-—3p2--2--2----0----0--0--0--0--0---|
|---3--------3--3--3--3--------3--3--3--3----3--3----1----1--1--1--1—-3---|
|---2--------2--2--2--2--------2--2--2--2----2--2----0----0--0--0--0--0---|
|---0--------0--0--0--0--------0--0--0--0----0—-0----2----2--2--2--2--2---|
|----------------------------------------------------3----3--3--3--3--3---|
|-------------------------------------------------------------------------|

|---0--0--0--0----0--0--3----3--3--3----3--------3--3----3----3--3----3----3---|
|---3--3--3--3p1--1--1--3----3--3--3----3--------3--3----3----3—-3----3----3---|
|---0--0--0--0----0--0--0----0--0--0----0--------0--0----0----0--0----0----0---|
|---2--2--2--2----2--2--0----0--0--0----0--------0--0----0----0--0----0----0---|
|---3--3--3--3----3--3--2----2--2--2----2--------2--2----2----2--2----2----2---|
|-----------------------3----3--3--3----3--------3--3----3----3--3----3----3---|

|---3--3--3--3--3--3--3--3--3--3--3--3--3--------3--3--3--3------3--3--3--3---|
|---3--3--3--3--3--3--3--3--3--3--3--3—-3--------3--3--3--3------3--3--3--3---|
|---0--0--0--0--0--0--0--0--0--0--0--0--0--------0--0--0--0------0--0--0--0---|
|---0--0--0--0--0--0--0--0--0--0--0--0--0--------0--0--0--0------0--0--0--0---|
|---2--2--2--2--2--2--2--2--2--2--2--2--2--------2--2--2--2------2--2--2--2---|
|---3--3--3--3--3--3--3--3--3--3--3--3--3--------3--3--3--3------3--3--3--3---|

|---3--3----3--3-3--3----3--3-3-3-3-3-3-0--0-0-0-0-0----0-0--0----0-0-0-----|
|---3--3----3--3-3--3----3--3-3-3-3-3-3-1--1-1-1-1-3----1-1—-1p0--0-0-1p0---|
|---0—-0----0—-0-0—-0----0-—0-0-0-0-0-0-0--0-0-0-0-0----0-0--0----0-0-2-----|
|---0--0----0--0-0--0----0—-0-0-0-0-0-0-2--2-2-2-2-2----2-2--2----2-2-2-----|
|---2--2----2--2-2--2----2--2-2-2-2-2-2-3--3-3-3-3-3----3-3--3----3-3-0-----|
|---3--3----3--3-3--3----3--3-3-3-3-3-3-------------------------------------|

|---0-0--0-0------0-0-0-0----0-0----2----2--2--2--3------3--3--3—-3p2--2--2---|
|---1-1--1-3------0-0-0-1p0--0-0----3----3--3--3--3------3--3--3—-3----3--3---|
|---2-2--2-2------2-2-2-2----2-2----2----2--2--2--2------2--2--2--2----2--2---|
|---2-2--2-2------2-2-2-2----2-2----0----0--0--0--0------0--0--0--0----0--0---|
|---0-0--0-0------0-0-0-0----0-0----------------------------------------------|
|-----------------------------------------------------------------------------|

|---0--0-0-0-0-0--0-0-0-0-0-0-0-0—-3~~~---|
|---1--1-1-1-1-1--1-1-1-1-1-1-1-1—-3~~~---|
|---0--0-0-0-0-0--0-0-0-0-0-0-0-0—-0~~~---|
|---2--2-2-2-2-2--2-2-2-2-2-2-2-2—-0~~~---|
|---3--3-3-3-3-3--3-3-3-3-3-3-3-3—-2~~~---|
|----------------------------------3~~~---|
Comments