Creed - What If Chords & Tabs

 

What If Chords & Tabs

Creed Chords & Tabs

Version: 4 Type: Tab 0 ratings
1 star 2 stars 3 stars 4 stars 5 stars
comments

What If Tab

#----------------------------------PLEASE NOTE--------------------------------#
#This file is the author's own work and represents their interpretation of the#
#song. You may only use this file for private study, scholarship, or research.#
#-----------------------------------------------------------------------------#
#-- File created with Instab - http://www.pconline.com/~smcarey/instab.html --#
#-----------------------------------------------------------------------------#

Author/Artist: Creed
Title: What If
Album: Human Clay
Transcribed by: Mike A.
Email: mexicalidude85@hotmail.com

this song was done in dropped d, so the only string that got 
messed with was the bottom e. Enjoy!

-----------5-------3-------1-----------1---0-----------0---0------------------
-------5-6---6---5---5---3---3-------3---3---3-------3---2---2-----------5-6--
-----7-------------------------1---1-----------0---0-----------0-------7------
-5/7-----0---------------------------------------------------------5/7-----0--
-----------------0-------1-------1-------0-------0-------0--------------------
------------------------------------------------------------------------------
                                                                              

-5--------3--------1-----------1---0-----------0---0-----------0--------------
---6----5---5----3---3-------3---3---3-------3---2---2-------2---3---3-3------
-----------------------1---1-----------0---0-----------0---0------------------
-----0-----------------------------------------------------------0---0--------
--------0------0-1-------1---------------0-------0-------0-------------0------
------------------------------------------------------------------------------
                                                                              

------------------------------------------------------------------------------
-2/3--5p3p0--2----------------------------------------------------------------
------------------------------------------------------------------------------
----------------------------------------------------0-0-----------------------
-0----0-------------------------0--0-0--------3p5---1-1-----0--0-0-------3p5--
--------------------------------0--0-0--3p5-0-----0-0-0-2-2-0--0-0-3p5-0------
             let ring, then...                                                
[ Tab from: http://www.guitartabs.cc/tabs/c/creed/what_if_tab_ver_4.html ]
------------------------------------------------------------------------------
------------------------------------------------------------------------------
------------------------------------------------------------------------------
---0-0-2-2------------------------------------------------x-------------------
---1-1-1-1--0--0-0-------3p5---1-1-----0--0-0-------3p5---x-------------------
-0-0-0------0--0-0-3p5-0-----0-0-0-2-2-0--0-0-3p5-0-------x-3^----------------
                                                                              

------------------------------------------------------------------------------
------------------------------------------------------------------------------
------------------------------------------------------------------------------
-0-------------------------0-------------------------0---------------------0--
-0-x-x-------3p5---1-------0-x-x-------3p5---1-------0-x-x-------3p5---1---0--
-0-x-x-3p5-x-----x---x-2b3-0-x-x-3p5-x-----x---x-2b3-0-x-x-3p5-x-----x---2-0--
 verse w/ distortion                                                          

-------------------------|----------------------------------------------------
-------------------------|----------------------------------------------------
-------------------------|---3------/-5-----\-3-------------------------------
-------------------------|---3------/-5-----\-3---2-2-------------------------
-x-x-------3p5---1-------|---1------/-3-----\-1---2-2---0------3p5-5-5-5p0----
-x-x-3p5-x-----x---x-3^--|------------------------2-2---0--x-x----------------
                          chorus                                              

-------------------------|------------|---------------------------------------
-------------------------|------------|---------------------------------------
-------------------------|-----------0|---------------------------------------
-2p3-2-2-----------------|-----2p3-2-0|---------------------------------------
-----2-2-0-----3p5-5-5-5-|--p0-----2--|-x-------------------------------------
-----2-2-0-x-x-----------|---------2--|-x-3^----------------------------------
                          1.            2. on all but last chorus             

------------------------------------------------------------------------------
------------------------------------------------------------------------------
------------------------------------------------------------------------------
--------------------------------------------------------------------------12--
-----------------------------------------------------------------------11-----
-0-0-12-13-0-16-15-0-12-0-16-15-0-10-12-15-0-12-0-13-0-16-15-12-0-12-0--------
 here's the cool part after the second chorus                                 

----------|----------------------------------------------|--------------------
----------|----------------------------------------------|--------------------
----------|----------------------------------------------|3-------------------
---12/13--|----------------------------------------------|2--2----------------
----------|-0-----4p0-0-0-0-0-3p0-4p3-4p3-0-0-4p0-0-2p0-2|---1----------------
-0--------|-0-x-x-4p0-0-0-0-0-3p0-4p3-4p3-0-0-4p0-0-2p0-2|--------------------
            interlude part after solo and end, use either for last chord      

Comments