Creed - What If Chords & Tabs

 

What If Chords & Tabs

Creed Chords & Tabs

Version: 2 Type: Tab 1 rating
1 star 2 stars 3 stars 4 stars 5 stars
comments

What If Tab

CREED   (If you have any other CREED tabs that you might want)
What If         (email me at Jesus 2030@aol.com!!!!!!!!!!!!!)
Tabs By: PRS


Beginning*2
Very clean tone

E-------5----3----1------1--0------0-0------
B---5--6-6--5-5--3-3----3--3-3----3-2-2-----
G--7----------------1--1------0--0-----0*---
D-7-----------------------------------------
A-------------------------------------------
D-------------------------------------------


After *

E-------------------------------------------
B---2h3--5h3h2p0h2--------------------------
G-------------------------------------------
D-------------------------------------------
A-------------------------------------------
D-------------------------------------------


Verse
( Without Distortion )
E-------------------------------------------
B-------------------------------------------
G-------------------------------------------
D-0-----------------------------------------
A-0-----------3h5--1-1--1-1--*--------------
D-0--0-0-3h5--0---------2-2-----------------

Now you can do this two 
different ways after the *

( With Harmonics )

E-------------------------------------------
B-------------------------------------------
G-------------------------------------------
D-0-------------------x-2*------------------
A-0-----------3h5-----x---------------------
D-0--0-0-3h5--0-------x---------------------

( Without Harmonics )
Simply play the verse
and when the time 
comes hit your dirties 
and strum down while 
holding the section and 
strum up while muting 
the section.

E-------------------------------------------
B-------------------------------------------
G-------------------------------------------
D-0-------------------5-x-------------------
A-0-----------3h5-----3-x-------------------
D-0--0-0-3h5--0-------3-x-------------------

Verse 
( With Distrtion )
[ Tab from: http://www.guitartabs.cc/tabs/c/creed/what_if_tab_ver_2.html ]
E-------------------------------------------
B-------------------------------------------
G-------------------------------------------
D-0-----------------------------------------
A-0----------0-3h5--1-----------------------
D-0--0-0-3h5-----------2~-------------------

Chorus
( With Distortion )

E-------------------------------------------------
B-------------------------------------------------
G-3-3-3--3--3-3-3/5--5-5-5-5--12-11-1010/14-3-----
D-3-3-3--3--3-3-3/5--5-5-5-5----------------------*
A-1-1-1--1--1-1-1/3--3-3-3-5--10--9--8-8/12-1/5\1-
D-------------------------------------------------


Interlude
(With Wah Wah Pedal On A=11 3D=12 )

E---------------------------------------------------------------------------
B---------------------------------------------------------------------------
G---------------------------------------------------------------------------
D------------------------------------------------------------------------12-
A--------------------------------------------------------------------11-----
D-0-12-13-0-16-15-0-12-0-16-15-0-10-12/15-12-0-12-13-0-16-15-0-12-0-0--0-0--

Before you go into
the heavy part there
is this little part
and here is how it goes

E------------------------------------------------
B------------------------------------------------
G------------------------------------------------
D------------------------------------------------
A---13-13-14-14-15-15-16-16----------------------
D---12-12-13-13-14-14-15-15----------------------


Part After

E------------------------------------------------
B------------------------------------------------
G------------------------------------------------
D-0-0-0-4-0-0-0-0-0-3-4-3-0-0-0-2-0-0-0-0-0-2-4--
A-0-0-0-4-0-0-0-0-0-3-4-3-0-0-0-2-0-0-0-0-0-2-4--
D-0-0-0-4-0-0-0-0-0-3-4-3-0-0-0-2-0-0-0-0-0-2-4--

Screaming Part

E------------------------------------------------
B------------------------------------------------
G---3~~------------------------------------------
D---2--------------------------------------------
A---2--------------------------------------------
D---2--------------------------------------------
Comments