Creed - What If Chords & Tabs

 

What If Chords & Tabs

Creed Chords & Tabs

Version: 1 Type: Bass Tab 0 ratings
1 star 2 stars 3 stars 4 stars 5 stars
comments

What If Bass Tab

   
What if? by Creed
tabbed by Jeffrey Swing
mailto: solargroover@hotmail.com
Bass
Drop-D tuning

                           Verse 1                   X8
G|--------------------||-------------------------------|
D|--------------------||*-----------------------------*|
A|--------------------||*----------------3h5----1-----*|
D|--------------12\---||---0--0-0-3h5-0------0-----2---|


  Chorus 1
|------------------------|------------------------|
|------------------------|------------------------|
|--1----1----1-----1-----|--3----3----3-----1-----|
|----------------0----0--|----------------0----2--|


|----------------------------|----------------------------|
|-------------2--------------|-------------2--------------|
|---------3h5---5------1-----|---------3h5---5------1-----|
|--0--0-0------------0----2--|--0--0-0------------0----2--|


|------------------------|------------5-----------|
|------------------------|-------5----------------|
|--1----1----1-----1-----|--3---------------1-----|
|----------------0----0--|----------------0----2--|


|----------------------------|----------------------------|
|-------------2--------------|-------------2--------------|
|---------3h5---5------1-----|---------3h5---5------------|
|--0--0-0------------0----2--|--0--0-0------------0-12\---|


Verse 2            7 times        8th time
|-------------------------------||------------------|
|*-----------------------------*||------------------|
|*----------------3h5----1-----*||------------------|
|---0--0-0-3h5-0------0-----2---||-0----------------|


Chorus 2
|------------------------|------------------------|
|------------------------|------------------------|
|--1----1----1-----1-----|--3----3----3-----1-----|
|----------------0----0--|----------------0----2--|

|----------------------------|----------------------------|
|-------------2--------------|-------------2--------------|
|---------3h5---5------1-----|---------3h5---5------1-----|
|--0--0-0------------0----2--|--0--0-0------------0----2--|

|------------------------|------------5-----------|
|------------------------|-------5----------------|
|--1----1----1-----1-----|--3---------------1-----|
|----------------0----0--|----------------0----2--|

|----------------------------|----------------------------|
|-------------2--------------|-------------2--------------|
|---------3h5---5------1-----|---------3h5---5------1-----|
|--0--0-0------------0----2--|--0--0-0------------0----2--|

[ Tab from: http://www.guitartabs.cc/tabs/c/creed/what_if_btab.html ]
  Bridge Riff A                          2 Times
|------------------------|-------------------------|
|*-----------------------|------------------------*|
|*-----------------------|---------------------6--*|
|---0--0------0--0-0-----|--0--0------0--0-0-------|


  Bridge Riff B                                          8 times
|-----------------------------------|----------------------------------|
|*------------------------------3---|---------------------------------*|
|*----5-6---9-8---5---9-8---3-5---6-|----5-6---9-8---5----3/5-5/8-8\6-*|
|---0-----0-----0---0-----0---------|--0-----0-----0----0--------------|


Outro Riff                                         4 times
|---------------------------------|------------------------------|
|*--------------------------------|-----------------------------*|
|*--------------------------------|-------------------------7---*|
|---0--0-0-4-0-0-0--0-1-0-3-0-4-3-|----0-0-4-0-0-0--0-1-0-0------|


  Chorus 3
|------------------------|------------------------|
|------------------------|------------------------|
|--1----1----1-----1-----|--3----3----3-----1-----|
|----------------0----0--|----------------0----2--|

|----------------------------|----------------------------|
|----------------------------|----------------------------|
|---------3h5-7-5------1-----|---------3h5-7-5------1-----|
|--0--0-0------------0----2--|--0--0-0------------0----2--|

|------------------------|------------------------|
|------------------------|------------------------|
|--1----1----1-----1-----|--3----3----3-----1-----|
|----------------0----0--|----------------0----2--|

|----------------------------|----------------------------|
|----------------------------|----------------------------|
|---------3h5-7-5------1-----|---------3h5-7-5------1-----|
|--0--0-0------------0----2--|--0--0-0------------0----2--|

|------------------------|------------------------|
|------------------------|------------------------|
|--1----1----1-----1-----|--3----3----3-----1-----|
|----------------0----0--|----------------0----2--|

|----------------------------|----------------------------|
|-------------2--------------|-------------2--------------|
|---------3h5---5------1-----|---------3h5---5------------|
|--0--0-0------------0----2--|--0--0-0------------0-12\---|


  Outro Riff B
|--------------------|-----------------------------|
|--------------------|-----------------------------|
|--------------------|-------------------------7---|
|----------------4-3-|----0-0-4-0-0-0--0-1-0-0-----|


                                                      3 times
|---------------------------------|------------------------------||
|*--------------------------------|-----------------------------*||
|*--------------------------------|-------------------------7---*||
|---0--0-0-4-0-0-0--0-1-0-3-0-4-3-|----0-0-4-0-0-0--0-1-0-0------||

   hold
|--------|
|--------|
|--(7)---|
|--------|


Comments