Creed - Weathered Chords & Tabs

 

Weathered Chords & Tabs

Creed Chords & Tabs

Version: 7 Type: Tab 0 ratings
1 star 2 stars 3 stars 4 stars 5 stars
comments

Weathered Tab

   
Weathered-Creed
Weathered

Tuning:
D A D A D D

( ) = harmonics


Intro:

gtr. 2

d------------------------------------------------------------
d-3p0--------------0---------0---------------2p0-----0-----0-
a-----0-----0--------0---------------------------------3-----
d-------0--------------0-------------------------------------
a-3-------3---2----------------------------------------------
d------------------------3/5---------------------------------

gtr. 1

d------------------------------------------------------------
d-3p0--------------0---------0---------------2p0-2/4-0-----0-
a-----0--------------0---------------------------------3-----
d-------0---3----------0-------0-5\3-0-----------------------
a-3-------3---2----------------------------------------------
d------------------------3/5-----------0---------------------

gtr. 2

d---------------------------------------------(12)------(7)--
d-3p0--------------0---------0----------------(12)------(7)--
a-----0-----0--------0------------------------(12)------(7)--
d-------0--------------0-------------------------------------
a-3-------3---2----------------------------------------------
d------------------------3/5---------------------------------

gtr. 1

d---------------------------------------------(12)------(7)--
d-3p0--------------0---------0----------------(12)------(7)--
a-----0--------------0------------------------(12)------(7)--
d-------0---3----------0-------0-5\3-0-----------------------
a-3-------3---2----------------------------------------------
d------------------------3/5-----------0---------------------

gtr. 1&2

gtr. 1

d------------------------------------------------------------
d-3p0--------------0---------0---------------2p0-2/4-0-----0-
a-----0--------------0---------------------------------3-----
d-------0---3----------0-------0-5\3-0-----------------------
a-3-------3---2----------------------------------------------
d------------------------3/5-----------0---------------------

d-----------------------------------------(7)----------------
d-3p0--------------0---------0--------------------(12)--(7)--
a-----0--------------0-------------------------(12)-----(7)--
d-------0---3----------0-------0-5\3-0------------------(7)--
a-3-------3---2----------------------------------------------
d------------------------3/5-----------0---------------------

Verse:

d-----------------------------------------------------0------
d-3p0--------------0---------0----------------------0-0------
a-----0--------------0------------------------------------0--
d-------0---3----------0-------0-5\3-0-----------------------
a-3-------3---2----------------------------------------------
d------------------------3/5-----------0---------------------

d------------------------------------------------------------
d-3p0--------------0---------0---------------2p0-2/4-0-----0-
a-----0--------------0---------------------------------3-0---
d-------0---3----------0-------0-5\3-0-----------------------
a-3-------3---2----------------------------------------------
d------------------------3/5-----------0---------------------

d-------------------------------------------------------0----
d-3p0--------------0---------0-----------------(12)---0---0-0
a-----0--------------0--------------------(12)---------------
d-------0---3----------0-------0-5\3-0-----------------------
a-3-------3---2----------------------------------------------
d------------------------3/5-----------0---------------------

d------------------------------------------------------------
d-3p0--------------0---------0---------------------(12)--(7)-
a-----0--------------0------------------------------------0--
d-------0---3----------0-------0-5\3-0-----------------------
a-3-------3---2----------------------------------------------
d------------------------3/5-----------0---------------------

d----------------------------------------(7)-----------------
d-3p0--------------0---------0-----------(7)---------0-------
a-----0--------------0----------------------------------0----
d-------0---3----------0-------0-5\3-0-----------------------
a-3-------3---2------------------------0---------------------
d------------------------3/5-----------0---------------------

Verse:

d------------------------------------------------------------
d-3p0--------------0---------0---------------2p0-2/4-0-------
a-----0--------------0---------------------------------------
d-------0---3----------0-------0-5\3-0-----------------------
a-3-------3---2----------------------------------------------
d------------------------3/5-----------0---------------------

gtr. 1

d------------------------------------------------------------
d-3p0--------------0---------0----------------(12)----(7)----
a-----0--------------0---------------------------------------
d-------0---3----------0-------0-5\3-0-----------------------
a-3-------3---2----------------------------------------------
d------------------------3/5-----------0---------------------

gtr. 2

d------------------------------------------------------------
d-3p0--------------0---------0-------------------------------
a-----0--------------0---------------------------------5\3p0-
d-------0---3----------0-------0-5\3-0--------3--3h5/7-------
a-3-------3---2----------------------------0h5-5-------------
d------------------------3/5-----------0---------------------

gtr. 1&2

d------------------------------------------------------------
d-3p0--------------0---------0-------------------------0-----
a-----0--------------0-------------------------8p7-------0---
d-------0---3----------0-------0-5\3-0-----------------------
a-3-------3---2--------------------------------------------0-
d------------------------3/5-----------0---------------------

d-------------------------------------------------------0----
d-3p0--------------0---------0-----------------(12)---0------
a-----0--------------0--------------------(12)------------0-0
d-------0---3----------0-------0-5\3-0-----------------------
a-3-------3---2----------------------------------------------
d------------------------3/5-----------0---------------------

d--------------------------------------------------0---------
d-3p0--------------0---------0------------------0-------0----
a-----0--------------0----------------------------------0----
d-------0---3----------0-------0-5\3-0---------------------0-
a-3-------3---2----------------------------------------------
d------------------------3/5-----------0---------------------

Chorus:

d-----------------------------------------------------------------
d-----------------------------------------------------------------
a------------------1---1----------------------------3--3-------2--
d-0------0---0-0---3---3--------3---3-3---3-3-3-0---5--5-------5--
a-0------0---0-0---1---1--------3---3-3---3-3-3-0---3--3--0-0--2--
d-0------0---0-0-----------0-0--3---3-3---3-3-3-0---------0-0-----

d-----------------------------------------------------------------
d-----------------------------------------------------------------
a---2-2---2-2---2-2h3-2h3-2h3-2-----------------------------------
d---5-5---5-5---5-5---5---5---5---8-------8-------8-------8-8-8---
a---2-2---2-2---2-2---2---2---2---8-8-8-8-8-8-8-8-8-8-8-8-8-8-8---
d-------------------------------0-8-8-8-8-8-8-8-8-8-8-8-8-8-8-8-0-

d----------------------------------
d----------------------------------
a----------------------------------
d-5-------5-5-5---5-3-0-3---3-5-3--
a-5-5-5-5-5-5-5---5-3-0-3---3-5-3--
d-5-5-5-5-5-5-5-0-5-3-0-3---3-5-3--

d-----------------------------------------------------------------
d-----------------------------------------------------------------
a------------------1---1---------------------------3/5\3-------2--
d-0------0---0-0---3---3--------3---3-3---3-3-3-0--x---x-------5--
a-0------0---0-0---1---1--------3---3-3---3-3-3-0--3/5\3---0---2--
d-0------0---0-0-----------0-0--3---3-3---3-3-3-0----------0------

d-----------------------------------------------------------------
d-----------------------------------------------------------------
a---2-2---2-2---2-2h3-2h3-2h3-2-----------------------------------
d---5-5---5-5---5-5---5---5---5---8-------8-------8-------8-8-8---
a---2-2---2-2---2-2---2---2---2---8-8-8-8-8-8-8-8-8-8-8-8-8-8-8---
d-------------------------------0-8-8-8-8-8-8-8-8-8-8-8-8-8-8-8-0-

d----------------------------------
d----------------------------------
a----------------------------------
d-5-------5-5-5---5-3-0-3---3-5-3--
a-5-5-5-5-5-5-5---5-3-0-3---3-5-3--
d-5-5-5-5-5-5-5-0-5-3-0-3---3-5-3--

Interlude:

gtr. 1&2
[ Tab from: http://www.guitartabs.cc/tabs/c/creed/weathered_tab_ver_7.html ]
d-----------------------------------------------------------------
d-3p0---------------0---------0-----------------------3-5br-3-----
a-----0---------------0---------------------------3/5-------------
d-------0---3-----------0-------0-5\3-0---------------------------
a-3-------3---2---------------------------------------------------
d-------------------------3/5-----------0-------------------------

gtr. 3&4

d-----------------------------------------------------------------
d-----------------------------------------------------------------
a-----------------------------------------------------------------
d-----------0-------------------0---------------------------------
a-3-------3---2---------------------------------------------------
d-------------------------3/5-------------------------------------

gtr. 1&2

d-----------------------------------------------------------------
d-3p0---------------0---------0-----------------------------------
a-----0---------------0-------------------------------------------
d-------0---3-----------0-------0-5\3-0---------------------------
a-3-------3---2---------------------------------------------------
d-------------------------3/5-------------------------------------

gtr. 3&4

d-----------------------------------------------------------------
d-----------------------------------------------------------------
a-----------------------------------------------------------------
d-----------------------------------------------0/4h5p4h5p4-0-----
a-----------------------------------------------------------------
d-----------------------------------------------------------------

Verse:

d------------------------------------------------------------
d-3p0--------------0---------0------------------------0------
a-----0--------------0-----------------------------------0---
d-------0---3----------0-------0-5\3-0-----------------------
a-3-------3---2--------------------------------------------0-
d------------------------3/5-----------0---------------------

d------------------------------------------------------------
d-3p0--------------0---------0---------------2p0-2/4-0-----0-
a-----0--------------0---------------------------------3-----
d-------0---3----------0-------0-5\3-0-----------------------
a-3-------3---2----------------------------------------------
d------------------------3/5-----------0---------------------

d-----------------------------------------------------0------
d-3p0--------------0---------0---------------------------0---
a-----0--------------0---------------------(12)--------------
d-------0---3----------0-------0-5\3-0-----------------------
a-3-------3---2--------------------------------------------0-
d------------------------3/5-----------0---------------------

d------------------------------------------------------------
d-3p0--------------0---------0-------------------------------
a-----0--------------0---------------------------------5~~~~-
d-------0---3----------0-------0-5\3-0--------3--3h5/7-------
a-3-------3---2----------------------------0h5-5-------------
d------------------------3/5-----------0---------------------

gtr. 1&2

d------------------------------------------------------------
d-3p0--------------0---------0-------------------------------
a-----0--------------0---------------------------------------
d-------0---3----------0-------0-5\3-0-----------------------
a-3-------3---2----------------------------------------------
d------------------------3/5---------------------------------

gtr. 3&4

d-----------------------------------------------------------------
d-----------------------------------------------------------------
a-----------------------------------------------------------------
d--------------------------------5br-3------3---------------------
a------------------------------0-------5~~~---0-0---0-0---0-0-0---
d------------------------------0--------------0-0(3)0-0(3)0-0-0(3)

Interlude:

d-----------------------------------------------------------------
d-----------------------------------------------------------------
a-5-----5-----5-----5-----5-6-5---1-----1-----1-----1----3h5----3-
d-0-0-0-0-0-0-0-0-0-0-0-0-0-0-0-0-0-0-0-0-0-0-0-0-0-0-0-0--0----0-
a-----------------------------------------------------------------
d-----------------------------------------------------------------

d-----------------------------------------------------------------
d-----------------------------------------------------------------
a-0-----0-----0-----0-----0---0---1-----1-----1-----1---3p1p0-1-0-
d-0-0-0-0-0-0-0-0-0-0-0-0-0-0-0-0-0-0-0-0-0-0-0-0-0-0-0-0-----0-0-
a-----------------------------------------------------------------
d-----------------------------------------------------------------

Bridge:

d-----------------------------------------------------------------
d-----------------------------------------------------------------
a-5-----5-----5-----5-----5-6-5---1-----1-----1-----1----3h5----3-
d-0-0-0-0-0-0-0-0-0-0-0-0-0-0-0-0-0-0-0-0-0-0-0-0-0-0-0-0--0----0-
a-----------------------------------------------------------------
d-----------------------------------------------------------------

d-----------------------------------------------------------------
d-----------------------------------------------------------------
a-0-----0-----0-----0-----0---0---1-----1-----1-----1-----1p0-0-0-
d-0-0-0-0-0-0-0-0-0-0-0-0-0-0-0-0-0-0-0-0-0-0-0-0-0-0-0-0-0---0-0-
a-----------------------------------------------------------------
d-----------------------------------------------------------------

d-----------------------------------------------------------------
d-----------------------------------------------------------------
a-5-----5-----5-----5-----5-6-5---1-----1-----1-----1---1-1--5--3-
d-0-0-0-0-0-0-0-0-0-0-0-0-0-0-0-0-0-0-0-0-0-0-0-0-0-0-0-0-0--0--0-
a-----------------------------------------------------------------
d-----------------------------------------------------------------

d-----------------------------------------------------------------
d-----------------------------------------------------------------
a-0-----0-----0-----0-----0---0---1-----1-----1-----1-----1-1-1---
D-0-0-0-0-0-0-0-0-0-0-0-0-0-0-0-0-0-0-0-0-0-0-0-0-0-0-0-0-0-0-0-0-
a-----------------------------------------------------------------
d-----------------------------------------------------------------

d-121212-------121212-------121312---8-8-8-------8-7-8-------8108-
d-121212-------121212-------121312---8-8-8-------8-7-8-------8108-
a-121212-------121212-------121312\8-8-8-8-------8-7-8-------8108-
d-121212-------121212-------121312\8-8-8-8-------8-7-8-------81080
a--------0---0--------0---0----------------0---0-------0---0------
d--------0---0--------0---0----------------0---0-------0---0------

d-7-7-7-------7-8-7-------5-7-8---8-8-8-------8-8-8-------8-8-8-0-
d-7-7-7-------7-8-7-------5-7-8---8-8-8-------8-8-8-------8-8-8---
a-7-7-7-------7-8-7-------5-7-8---8-8-8-------8-8-8-------8-8-8---
d-7-7-7-------7-8-7-------5-7-8---8-8-8-------8-8-8-------8-8-8---
a-------0---0-------0---0---------------0---0-------0---0---------
d-------0---0-------0---0---------------0---0-------0---0---------

d-----------------------------------------------------------------
d-----------------------------------------------------------------
a-----------------------------------------------------------------
d-8-8-8-8-8-8-8-8-8-8-8-8-8-8-8---5-5-5-5-5-5-5---5-3-0-3---3-5-3-
a-8-8-8-8-8-8-8-8-8-8-8-8-8-8-8---5-5-5-5-5-5-5---5-3-0-3---3-5-3-
d-8-8-8-8-8-8-8-8-8-8-8-8-8-8-8-5-5-5-5-5-5-5-5-0-5-3-0-3---3-5-3-

Outro:

d-----------------------------------------------------------------
d-----------------------------------------------------------------
a-----------------------------------------------------------------
d-8-------8-------8-------8-8-8---5-------5---------5-----5-5-5---
a-8-8-8-8-8-8-8-8-8-8-8-8-8-8-8---5-5-5-5-5-5-5-5-5-5-5-5-5-5-5---
D-8-8-8-8-8-8-8-8-8-8-8-8-8-8-8-0-5-5-5-5-5-5-5-5-5-5-5-5-5-5-5-0-

d-----------------------------------------------------------------
d-----------------------------------------------------------------
a-----------------------------------------------------------------
d-8-------8-----------------------5-------5---------5-----5-5-5---
a-8-8-8-8-8-8-8-8-8-8---8-8-8-8---5-5-5-5-5-5-5-5-5-5-5-5-5-5-5---
d-8-8-8-8-8-8-8-8-8-8---8-8-8-8-0-5-5-5-5-5-5-5-5-5-5-5-5-5-5-5-0-




d-----------------------------------------------------------------
d-----------------------------------------------------------------
a-------------------3/5-5-5/7-7-5---------------------------------
d-8-8-8-8-8-8-8-8---x-x-x-x-x-x-x-5-5-5-5-5-5-5---5-3-0-3---3-5-3-
a-8-8-8-8-8-8-8-8-0-3/5-5-5/7-7-5-5-5-5-5-5-5-5---5-3-0-3---3-5-3-
d-8-8-8-8-8-8-8-8-0---------------5-5-5-5-5-5-5-0-5-3-0-3---3-5-3-

d-----------------------------------------------------------------
d-----------------------------------------------------------------
a-0---------------------------------------------------------------
d-0---------------------------------------------------------------
a-0---------------------------------------------------------------
d-0---------------------------------------------------------------


thatís all

trevor jones
timmy91199@yahoo.ca
Comments