Creed - Weathered Chords & Tabs

 

Weathered Chords & Tabs

Creed Chords & Tabs

Version: 3 Type: Tab 0 ratings
1 star 2 stars 3 stars 4 stars 5 stars
comments

Weathered Tab

#----------------------------------PLEASE NOTE--------------------------------#
#This file is the author's own work and represents their interpretation of the#
#song. You may only use this file for private study, scholarship, or research.#
#-----------------------------------------------------------------------------#
#-- File created with Instab - http://www.pconline.com/~smcarey/instab.html --#
#-----------------------------------------------------------------------------#

Author/Artist: Creed
Title: My Sacrifice
Album: Weathered
Transcribed by: Iceman467 (Nathaniel Nelson)
Email: iceman467@hotmail.com

This song is in a REALLY funky tuning: DADADD.
To tune to this, follow these steps:
    1) From Standard Tuning, drop the sixth string 1 step to a D
    2) Raise the first string so it's 2 octaves above the sixth string.
    3) Raise the second string so it matches the first string. (Careful!)
    4) Raise the third string so it's 1 octave above the fifth string.
    5) BINGO! You’re in the DADADD tuning! 

SONG ORDER:
          Intro - Clean x 1.5 times
          Verse - Heavy Distortion x 3
          Chorus - Heavy Distortion x 2 
          Verse - Heavy Distortion x 3
          Chorus - Heavy Distortion x 2
          Bridge - Heavy Distortion x 4, then Second Part 
          Chorus - Clean w/Picking x 2
          Chorus - Heavy Distortion x 3
          Bridge - Heavy Distortion x 4, then Second Part          

Note: During the clean chorus, pick ONLY the chords with the * below them.
[ Tab from: http://www.guitartabs.cc/tabs/c/creed/weathered_tab_ver_3.html ]
---------------------------------------------|-00-----------------------------
--------0------------------------------------|-00-----------------------------
---4------4-----------------12-------12------|-00-5\44/55--5\44/99/10---------
-----4------4------------12----12-12----12---|-00-x-xx-xx--x-xx-xx-x----------
-2-----2---------2/10--10--------------------|-00-5\44/55--5\44/99/10-0-------
---------------------------------------------|-00-----------------------------
 INTRO                                                                        

------------------------------------------------------------------------------
------------------------------------------------------------------------------
-5\44/55--5-4/55/7-----5\44/55--5-4/55/7------44444/12121212121212------------
-x-xx-xx--x-x-xx-x-----x-xx-xx--x-x-xx-x------44444/10101010101010------------
-5\44/55--5-4/55/7-----5\44/55--5-4/55/7------22222/10101010101010------------
------------------------------------------------------------------------------
 VERSE                                                                        

-00---------------------------------------------------------------------------
-00---------------------------------------------------------------------------
-00-10h12-10-9-77777-1111111111-----------------------------------------------
-00------------77777-1010101010--555-0h5-0h3----------------------------------
-00------------44444-9-9-9-9-9---555-0h5-0h3----------------------------------
-00------------------9-9-9-9-9---555-0h5-0h3----------------------------------
 CHORUS           *        *               ^bend slightly                     

------------------------------------|--8888-8888-8-8888-8888-0----------------
------------------------------------|--8888-8888-8-8888-8888-0----------------
-9\7777\5555\4444-2/44/55\44/77\555-|--8888-8888-8-8888-8888-0----------------
-x-xxxx-xxxx-xxxx-x-xx-xx-xx-xx-xxx-|--8888-8888-8-8888-8888-0----------------
-9\7777\5555\4444-2/4-/55\44/77\555-|--8888-8888-8-8888-8888-0----------------
------------------------------------|--8888-8888-8-8888-8888-0----------------
 BRIDGE                              SECOND PART OF BRIDGE                    

Comments