Creed - Weathered Chords & Tabs

 

Weathered Chords & Tabs

Creed Chords & Tabs

Version: 2 Type: Tab 0 ratings
1 star 2 stars 3 stars 4 stars 5 stars
comments

Weathered Tab

   
Creed-Weathered
Tabbed My Dave Wachala
csoul@mail.com

standard tuning with dropped D

here is the main riff
-----------------------------------------
-5p3--3--3-------------------5p0-5/7-----
----4------2-------------------------7\5-
-------------0-------------0-------------
-3----3--2-----0----5---/9---------------
-----------------3/5---------------------
                               Harm...
-----------------------------------------
-5p3--3--3--------------------------*----
----4------2-------------------*----7----
-------------0-------------0---7----*----
-3----3--2-----0----5---/9-----*---------
-----------------3/5---------------------

This is played at 1:09
--------------------------------------10\8\5-
-5p3--3--3----------------------6--5p6-------
----4------2------------------7---7----------
-------------0-------------0-----------------
-3----3--2-----0----5---/9-------------------
-----------------3/5-------------------------
[ Tab from: http://www.guitartabs.cc/tabs/c/creed/weathered_tab_ver_2.html ]
Chorus:
A5   Bb         xF5           x 
Me...I'm rusted and Weathered, barely holding together
------------------------------------------------------
------------------------------------------------------
-------------------------------5/7---5--2-------------
-------------------------------x-x---x--2-------------
-------------------------------3/5---3--0-------------
------------------------------------------------------

Bb5                    C5
I'm covered w/ skin that peels and it just won't heel
------------------------------------------------------
------------------------------------------------------
------------------------------------------------------
------------------------------------------------------
------------------------------------------------------
------------------------------------5p3--0--3-----5---

Bridge:
------------------------------------------
------------------------------------------
-7-x-7-x-7-x-7-7h9p7--7-x-7-x-7-x-7--7----
----------------------8-x-8-x-8-x-8--5----
-5-x-5-x-5-x-5-5---5--5-x-5-x-5-x-5--5----
------------------------------------------
Comments