Creed - Wash Away Those Years Chords & Tabs

 

Wash Away Those Years Chords & Tabs

Creed Chords & Tabs

Version: 3 Type: Tab 0 ratings
1 star 2 stars 3 stars 4 stars 5 stars
comments

Wash Away Those Years Tab

   
Song : Wash away those years
Band: creed
Drop D (D,A,D,G,B,E)
This a pretty good song and it is played slow..
h= hammer
/=slide
'
'
'
v= Played upwards
PM= Palm muted
INTRO
1---------------------------------------------------------------------------
2-----6-------6----6---5------5-h6----5-h-6---5h6----3----------------------
3-----5h7-----5----5---5------5-------5-------5------3----------------------
4---0------0-----0---0------0-------0-------0------0------------------------
5---------------------------------------------------------------------------
6---------------------------------------------------------------------------

1---------------------------------------------------------------------------
2----3h5---3h5----3-h5----3-2--2h3-----3------------------------------------
3----3-----3------3------------2-------2------------------------------------
4--0------0------0-----0------------0---------------------------------------
5---------------------------------------------------------------------------
6---------------------------------------------------------------------------
[ Tab from: http://www.guitartabs.cc/tabs/c/creed/wash_away_those_years_tab_ver_3.html ]
VERSE is the same as above changing in the part of verse before chorus=
1---------------------------------------------------------------------------
2-----3h5----3h5-----3h5---------3---2---2h3-----3--------------------------
3-----3------3-------3-----------2-------2----------------------------------
4---0------0--------0----------0--------------0-----------------------------
5---------------------------------------------------------------------------
6---------------------------------------------------------------------------
    This     is      how      she carried        on

CHORUS
1---------------------------------------------------------------------------
2---------------------------------------------------------------------------
3--5--5--5---5-5---5---5--5/--7-7--7-7--7-7/10-9----------------------------
4--5--5--5---5-5---5---5--5/--7-7--7-7--0-0----0----------------------------
5--3--3--3---0-0---2---2--2/--5-5--6-6--0-0----0----------------------------
6--3--3--3---0-0---2---2--2/--5-5--6-6--0-0----0----------------------------
Each last more im just putting the chords, find when they go it easy...

 Just before bridge it plays this 
1---------------------------------------------------------------------------
2---------------------------------------------------------------------------
3-------------------------------------7'----7'------------------------------
4-------------------------------------0'----5'------------------------------
5-------------------------------------0'----5'----------------0-------------
6-------------------------------------0v----5v----------------0-------------
They went sent to wash away those years         Maybe we.....(PM)...years...
BRIDGE
1---------------------------------------------------------------------------
2---------------------------------------------------------------------------
3--3--3-------------------------------5-5-5---5/7--5------------------------
4--1--1--3/5--3---1h0---33-33--3/5/3--5-5-5---5/7--5-----7------------------
5--1--1-----------------11-11--1/3/1--3-3-3--------------5------------------
6--1--1--------------------------------------------------5------------------

THanks please rate!!
Maximus Joz
Any doubts to kimahrironso@hotmail.com
Comments