Creed - Wash Away Those Years Chords & Tabs

 

Wash Away Those Years Chords & Tabs

Creed Chords & Tabs

Version: 1 Type: Tab 0 ratings
1 star 2 stars 3 stars 4 stars 5 stars
comments

Wash Away Those Years Tab

Wash Away Those Years Tab


#This file is the author's own work and represents their interpretation of the#
#song. You may only use this file for private study, scholarship, or research.#

Artist: Creed
Album:  Human Clay
Title:  Wash Away Those Years
E-Mail: naesnoodlum@yahoo.com.au


-------------------------------
Transcribed by Sean Muldoon


There are three basic parts to this song. Just listen to this killer track and you should be able to follow it from there.

Fig. 1 Intro/verse
[ Tab from: http://www.guitartabs.cc/tabs/c/creed/wash_away_those_years_tab.html ]
e-------------------------------------------------------------
b-------------------------------------------------------------
g-10-10-10-9----9h10-9h10-9h10p9-7----7h9-7h9-7h9p7-7-6-6h7-7-
d-------------------------------------------------------------
a-------------------------------------------------------------
D----------------------------------------------------------0--

End Fig. 1

Fig. 2  chorous

e---------------------------------------------
b---------------------------------------------
g-5-----5-----4----7----------------/-10-9----  let open strings ring when the 
d-3-----2-----2----5---6---5-6--0-------------  chrous is distorted
a-3-----2-----2----5---6---5-6--0-------------
D-3-----2-----2----5---6---5-6--0-------------

End Fig. 2

Fig. 3 bridge

e--------------------------------------------------------------
b--------------------------------------------------------------
g--------------------3/5\3-------------------------------------
d-1-1-3/5-3-1p0-3-----------3/5-5--5/7\5--7--7h8-8-8p7p5h7-----
a-1-1-----------1----1/3\1--1/3-3--3/5\3--5--5-----------------
D-1-1-------------------------------------5--5-----------------

Comments