Creed - Unforgiven Chords & Tabs

 

Unforgiven Chords & Tabs

Creed Chords & Tabs

Version: 1 Type: Bass Tab 0 ratings
1 star 2 stars 3 stars 4 stars 5 stars
comments

Unforgiven Bass Tab

   
Band- Creed
Song- Unforgiven

Drop D Tunning

Intro
G----------------------------------------------------|
D--------0h6----------0------------0h6---------------|
A----0h6----------0h6----------0h6-------------------|
D-0-0---------0-0---------0--0----------0-0--0-6-5-0-|

G--------------------------------------------------|
D---------0h6---------0-----------0h6--------------|
A-----0h6---------0h6---------0h6------------------|
D-3-0---------0-0--------0--0----------0-0-0-6-5-0-|

G---------------------------------------------|
D---------0h3---------0---------0h3---------0-|
A-----0h3---------0h3-------0h3---------0h3---|
D-3-0---------0-0-------0-0---------0-0-------|

G-------------------------------------------------|
D---------0h3-----------0----------0h3----------0-|
A-----0h3-----------0h3--------0h3----------0h3---|
D-0-0-----------0-0--------0-0----------0-0-------|

Verse
G-------------------------|
D---------0-6----------0--|   X3
A-----0h6----------0-6----|
D-0-0----------0-0--------|

G----------------------------|
D---------0-6----------------|
A-----0h6--------------------|
D-0-0----------0-0-0-0-6-5-0-|

G------------------------------------------------|
D---------0-6----------0----------0-6----------0-|
A-----0h6----------0-6--------0h6----------0-6---|
D-3-0----------0-0--------0-0----------0-0-------|

G---------------------------------------------------|
D---------0-6--------------0----------0-6---------0-|
A-----0h6--------------0-6--------0h6---------0-6---|
D-0-0--------------0-0--------0-0---------0-0-------|

Chorus
G-----------------------------------------------|
D-----------------------------------------------|
A-5-5-5-5-5-5-5-4-4-4-4-4-4-4-4-2-2-2-2-2-2-2---|
D---------------------------------------------0-|

G-----------------------|
D-----------------------|
A---------5-6---------5-|
D-0-0-6h7-----0-0-6h7---|

G-----------------------------------------------|
D-----------------------------------------------|
A-5-5-5-5-5-5-5-4-4-4-4-4-4-4-4-2-2-2-2-2-2-2---|
D-----------------------------------------------|

G-----------------------|
D-----------------------|   X4
A---------5-6---------5-|
D-0-0-6h7-----0-0-6h7---|

Verse
G-------------------------|
D---------0-6----------0--|   X3
A-----0h6----------0-6----|
D-0-0----------0-0--------|

G----------------------------|
D---------0-6----------------|
A-----0h6--------------------|
D-0-0----------0-0-0-0-6-5-0-|

G------------------------------------------------|
D---------0-6----------0----------0-6----------0-|
A-----0h6----------0-6--------0h6----------0-6---|
D-3-0----------0-0--------0-0----------0-0-------|

G---------------------------------------------------|
D---------0-6--------------0----------0-6---------0-|
A-----0h6--------------0-6--------0h6---------0-6---|
D-0-0--------------0-0--------0-0---------0-0-------|

Chorus
G-----------------------------------------------|
D-----------------------------------------------|
A-5-5-5-5-5-5-5-4-4-4-4-4-4-4-4-2-2-2-2-2-2-2---|
D-----------------------------------------------|

G-----------------------|
D-----------------------|
A---------5-6---------5-|
D-0-0-6h7-----0-0-6h7---|
[ Tab from: http://www.guitartabs.cc/tabs/c/creed/unforgiven_btab.html ]
G-----------------------------------------------|
D-----------------------------------------------|
A-5-5-5-5-5-5-5-4-4-4-4-4-4-4-4-2-2-2-2-2-2-2---|
D-----------------------------------------------|

G-----------------------|
D-----------------------|
A---------5-6---------5-|
D-0-0-6h7-----0-0-6h7---|

G------------------------------------------------|
D------------------------------------------------|
A-5-5-5-5-5-5-5-4-4-4-4-4-4\13-13-13-13-13-13-13-|
D------------------------------------------------|

G-----------------------|
D-----------------------|   X4
A---------5-6---------5-|
D-0-0-6h7-----0-0-6h7---|

Intelude
G-------------------------|
D---------0-6----------0--|
A-----0h6----------0-6----|
D-0-0----------0-0--------|

G----------------------------|
D---------0-6----------------|
A-----0h6--------------------|
D-0-0----------0-0-0-0-6-5-0-|

G---------------------------------------|
D---------0h6----------0----------------|
A-----0h6----------0h6------------------|
D-3-0----------0-0--------0-0-0-6-5-3-0-|

G-----------------------------------------------|
D-----------------------------------------------|
A-----------------5-3-----------------5-3---5-3-|
D-0-0-0-0-0-0-0-0-----0-0-0-0-0-0-0-0-----0-----|

G-------------------------------------------------------------|
D-------------------------------------------------------------|
A-------------------------5-3-----------------5-3---5-3---5-3-|
D-0-0-0-0-0-0-0-0-0-0-0-0-----0-0-0-0-0-0-0-0-----0-----0-----|

G-----------------------------------------------------------------------|
D-----------------------------------------------------------------------|
A-------------------------5-3-----------------5-3---5-3---5-3---5-3-----|
D-0-0-0-0-0-0-0-0-0-0-0-0-----0-0-0-0-0-0-0-0-----0-----0-----0-----0-0-|

Bass Solo
G-------------------------------------------------------------------|
D-------------------------------------------------------------------|
A-------------------------------------------------------------------|
D-13-12-12-13-13-12--12-13-12-12-13-13-12--12-13-12-12-13-13-12--12-|

cont...
G-------------------------|
D-------------------------|   X6
A-12-12-12-12-12-12-12----|
D----------------------12-|

Chorus
G-----------------------------------------------|
D-----------------------------------------------|
A-5-5-5-5-5-5-5-4-4-4-4-4-4-4-4-2-2-2-2-2-2-2---|
D-----------------------------------------------|

G-----------------------|
D-----------------------|
A---------5-6---------5-|
D-0-0-6h7-----0-0-6h7---|

G-----------------------------------------------|
D-----------------------------------------------|
A-5-5-5-5-5-5-5-4-4-4-4-4-4-4-4-2-2-2-2-2-2-2---|
D-----------------------------------------------|

G-----------------------|
D-----------------------|
A---------5-6---------5-|
D-0-0-6h7-----0-0-6h7---|

G----------------------------------------|
D----------------------------------------|
A-5-5-5-5-5-5-5-4-4\13-13-13-13-13-13-13-|
D----------------------------------------|

G-----------------------|
D-----------------------|   X4
A---------5-6---------5-|
D-0-0-6h7-----0-0-6h7---|

End Note
G-------|
D-------|
A-------|
D--0~~--
Comments