Creed - Torn Chords & Tabs

 

Torn Chords & Tabs

Creed Chords & Tabs

Version: 1 Type: Tab 0 ratings
1 star 2 stars 3 stars 4 stars 5 stars
comments

Torn Tab

#-----------------------------------------------------------------------------#
#-- File created with Instab - http://www.pconline.com/~smcarey/instab.html --#
#-----------------------------------------------------------------------------#

Author/Artist: Creed
Title: Torn
Album: My Own Prison
Email: tobias9086@yahoo.com

This is the 6:02 min/sec song of of MYOP only some


----------|---------0-----0----|----------------------------------------------
--------6-|-----------6-----6--|----------66---6/8-8-8-8-8--------------------
---7p5----|---7p5-------5-----5|----7p5---55---5/7-7-7-7-7--------------------
-0----0---|-0-----0------------|-0------0----0--------------------------------
----------|--------------------|----------------------------------------------
----------|--------------------|----------------------------------------------
       (low E is dropped to D)     *this is the intro*                        
[ Tab from: http://www.guitartabs.cc/tabs/c/creed/torn_tab.html ]
-------------------------0----------------------------------------------------
------------6-6------------6--------------------------------------------------
----7p5-----5-5---7p5--------5------------------------------------------------
-0-------0------0-----0-------------------------------------------------------
------------------------------------------------------------------------------
------------------------------------------------------------------------------
 VERSE                                                                        

------|------------|----------------------------------------------------------
------|------------|----------------------------------------------------------
------|--5---------|----------------------------------------------------------
---3--|--5---------|----------------------------------------------------------
---3--|--3---------|----------------------------------------------------------
---3--|----0-0-0-3-|----------------------------------------------------------
 PRE-CHOURUS                               All for now! see ya!               

Comments