Creed - Torn Live Chords & Tabs

 

Torn Live Chords & Tabs

Creed Chords & Tabs

Version: 1 Type: Tab 0 ratings
1 star 2 stars 3 stars 4 stars 5 stars
comments

Torn Live Tab

Band- Creed
Song- Torn(Live)
Album- My Own Prison
Tuning- Drop D

This is off the DVD from their greatest hits album.ENJOY!!!

Intro - 3x                         4th time             
--------------------------0--------|----------------------------------|
------------6----------------6-----|-------------6-6--6-6--6\8-8-8-8--|
----7p5-----------7p5-----------5--|-----7p5-----5-5--5-5--5\7-7-7-7--|
-0-------0-----0-------0-----------|--0-------0--0-0--0-0------0-0-0--|
-----------------------------------|----------------------------------|
-----------------------------------|----------------------------------|


Verse - 3x                          4th time 
---------------------------0--------|---------------------------------|
------------6-6---------------6-----|-------------6--6-6--6/8--8-8-8--|
----7p5-----5-5-----7p5----------5--|-----7p5-----5--5-5--5/7--7-7-7--|
-0-------0-------0-------0----------|--0-------0--0--0-0-------0-0-0--|
------------------------------------|---------------------------------|
------------------------------------|---------------------------------|


Play the verse 2 times.


Pre-Chorus - 2x
----------------------------------------------------------------|
----------------------------------------------------------------|
-5--5--5-5-5-5--5-5-----5--5-5--5-----------5-------------------|
-3--3--3-3-3-3--5-5--0--5--5-5--5--0-0-0-0--3--0-0-0--3p0--0-0--|
-3--3--3-3-3-3--3-3--0--3--3-3--3--0-0-0-0--3--0-0-0--3p0--0-0--|
-3--3--3-3-3-3--3-3--0-------------0-0-0-0--3--0-0-0--3p0--0-0--|

------------------------------------------------|
------------------------------------------------|
------------------------------------------------|
--------------0-0-0--3p0--0-0-------------------|
-3-4-5-0-3-4--0-0-0--3p0--0-0--3-4-5-0-5-4-3-0--|
--------------0-0-0--3p0--0-0-------------------|






Chorus - 
------------------------------------------------------------------|
------------------------------------------------------------------|
-5--5-5-5--x--5-5-5-5-----7--7-7-7--x--7-7--7--7-7-----10--10-10--|
-3--3-3-3--x--5-5-5-5--0--5--5-5-5--x--7-7--7--7-7--0---8---8--8--|
-3--3-3-3--x--3-3-3-3--0--5--5-5-5--x--5-5--5--5-5--0---8---8--8--|
-3--3-3-3--------------0--5--5-5-5------------------0---8---8--8--|

----------------------------------------------|
----------------------------------------------|
-10--10--x--10--10-10-10-10-----9--9-9--9-----|
--8---8--x--10--10-10-10-10-----7--7-7--7-----|
--8---8--x---8---8--8--8--8--0--7--7-7--7--0--|
--8---8----------------------0--7--7-7--7--0--|



[ Tab from: http://www.guitartabs.cc/tabs/c/creed/torn_live_tab.html ]
--------------------|
--------------------|
--------------------|
-7\5----------------|
------7-5\3---------|
-------------3--5b--|


Play the verse

Then the pre chorus

Then the chorus


Interlude - (palm muted)
---------------------------------------------------------------------|
---------------------------------------------------------------------|
---------------------------------------------------------------------|
---------------------------------------------------------------------|
----------------------------6-6-------6-6-----------------4-5-4------|
-0-0--10-10--9-9--0-0--6-7-------0-0-------7-7--0-0--4-5--------5-0--|

End with this the 1st time - 
--------------------------------------------------------------------|
--------------------------------------------------------------------|
--------------------------------------------------------------------|
----------3-3-3--------------3-3-3-3-0-----------2-2-2--------------|
--------------------------------------------------------------------|
-3-3-3-3---------3--3-3-3-3-------------2-2-2-2---------2--2-2-2-2--|

            End interlude with this the 2nd time (Riff I) - 
------------|-------------------------------------------------|
------------|-------------------------------------------------|
------------|--5--5-5-5----------------4--4-4-4---------------|
-2-2-2-2-0--|--3--3-3-3----------------2--2-2-2---------------|
------------|--3--3-3-3--3-3--0--3--5--2--2-2-2--2-2--0--2-3--|
------------|--3--3-3-3--3-3--0--3--5--2--2-2-2--2-2--0--2-3--|

Then this 3x -
----------------------------------------------------------|
----------------------------------------------------------|
--------------------8-------8-----------------7--7--7-----|
--------------------8-------8--------------6--7--0--5-----|
-0--10--9--0--6--7--6--0-0--6--7--0--4--5--4--5--0--5--0--|
-0--10--9--0--6--7-----0-0-----7--0--4--5--------0--5--0--|

Then the verse 2x

Then this two times (clean, strum soft)
------------------------------------------|
------------------------------------------|
-5---5--/7---7---10---10---9---7---7------|
-3---5---5---7----8----8---7---0---5---0--|
-3---3---5---5----8----8---7---0---5---0--|
-3-------5--------8--------7---0---5---0--|

Outro - (Repeat and fade to black!) 
----------------------------0-----------0---------|
------------6-------------------6-----------6-----|
----7p5------------7p5-------------5-----------5--|
-0-------0------0--------0------------0-----------|
--------------------------------------------------|
--------------------------------------------------|
Comments