Creed - Stand Here With Me Chords & Tabs

 

Stand Here With Me Chords & Tabs

Creed Chords & Tabs

Version: 7 Type: Tab 0 ratings
1 star 2 stars 3 stars 4 stars 5 stars
comments

Stand Here With Me Tab

Creed
Stand Here With me
Tabbed by:Fernando Delgado
Tuning:DADADD

I know this is not the perfect Version But you cant play the song. I have the complete 
solo and enjoy and try it you going to do this and the others thanx U.G. member please 
comments and rate.
                                        ATT:Fernando Delgado


D--------------------------------------------------------0-------0----0-
D---------------------------------4~~~-------------4-----4h5-----5----4-
A------4h5-----4h5-----5h7--4h5-------------5-----------5--------5----5-
D---------------------------------------4h5-----5-----5-------5---------
A---0-------0-------0---------------------------------------------------
D-----------------------------------------------------------------------
                                                                        
                                                                     
                                                                        

    There's the note you need open d5 for   Again!!                     
D---0---------------------------------------0---------------------------
D---0---------------------------------------0---------------------------
A---0------------------------4--5~~~--------0---------------------4--5/7~~~
D---0-------------------7/9-----------------0----------------7h9--------
A------0--0-----4h5--5-------------------------0--0--4h5--5-------------
D------0---------------------------------------0------------------------
                                                                        

  DISTORTION!!!                          
D----------------------------------------
D-------------------------------4~~~-----
A----4h5-----4h5-----5h7--4h5-----------
D----------------------------------------
A-0-------0-------0----------------------
D----------------------------------------
                                                                        

                                                                        
D-----------------------------------------------------------------------
D-------------------4-----5^--5--4--------------------------------------
A-------------5---------------------5~~~--------------------------------
D--------4h5-----5-----5------------------------------------------------
A-----------------------------------------------------------------------
D-----------------------------------------------------------------------
                                                                        

                                                                        
D---0---------------------------------------0------------------------
D---0---------------------------------------0------------------------
A---0------------------------4--5~~~--------0-------------------4-5/7~~~
D---0-------------------7/9-----------------0---------------7h9-----
A------0--0-----4h5--5------------------------0--0--4h5--5----------
D------0--------------------------------------0---------------------
                                                                        
                                                                     
                                                                        

    Chorus (listen to cd for rythym)                                    
D-----------------------------------------------------------------------
D-----------------------------------------------------------------------
A------------------------3--------------------1-------------------------
D---0--------------------5--------------------3-----3-------------------
A---0--x-----------------3--------0-----------1-----3-------------------
D---0-----------------------------------------------3-------------------
    stand here......     Noooooooooooow!!!                                                                    

                                
D-----------------------------------------------------------------------
D-----------------------------------------------------------------------
A-----------------------------------------------------------------------
D--0-3/5-5-5 0-------------0--------------------------------------------
A--0-3/5-5 5 0-----3h5--5--0--3h5---------------------------------------
D--0-3/5-5-5 0--0--0-0--0--0--0-0---------------------------------------
                                                                        

                                                                       4x                                
D---------------------------------------------------------||-----------||
D---------------------------------------------------------||-----------||
A---7^--5~~~-x-x-7p8--5~~~------5--7-5h7p5\3--5p3p0-------||*---------*||
D---------------------------x\-----------------------5----||*--5p4p0--*||
A---------------------------x\----------------------------||-----------||
D---------------------------x\----------------------------||-----------||
                                                                        
[ Tab from: http://www.guitartabs.cc/tabs/c/creed/stand_here_with_me_tab_ver_7.html ]
                                                                        
D-----------------------------------------------------------------------
D-------------------15^--15^--15~~~--15--12--14------12-----------------
A------------------------------------------------15------15^--15^--15~~~
D---x\---0--------------------------------------------------------------
A---x-\--0--------------------------------------------------------------
D---x\---0--------------------------------------------------------------
                                                                        

                                                                        
                                                                        

                                                                        
D-----------------------------------------------------------------------
D--2--3--5p3p2--3-----2--------------------3----------------------------
A------------------5-----3--5~~~--5--3--5-----5--3--5~~~----------------
D---------------------------------------------------------0-------------
A---------------------------------------------------------0-------------
D---------------------------------------------------------0-------------
                                                                        

                                                                        
D-----------------------------------------------------------------------
D------------------------------------16--14--16-------------------------
A------------------------------------------------17~~~------------------
D-----------------------------------------------------------------------
A-----------------------------------------------------------------------
D-----------------------------------------------------------------------
                                                                        

                                                             2x         
D---||-------------------------------------------------------||---------
D---||---16--14--16--17--16--14--16--17--16--14--16----------||---------
A---||*----------------------------------------------17~~~--*||---------
D---||*-----------------------------------------------------*||---------
A---||-------------------------------------------------------||---------
D---||-------------------------------------------------------||---------
                                                                        

                                                                        
D--------------------------------------------
D-16--14--16--17--16--14--16--17--16--14--16-
A--------------------------------------------
D--------------------------------------------
A--------------------------------------------
D--------------------------------------------
                                                                        

                         4x                                       2x      
D---||-------------------||-||-------------------------------------||
D---||---19p16------16---||-||---21p16------16-----19p16------16---||
A---||*---------17------*||-||*---------17----------------17------*||
D---||*-----------------*||-||*-----------------------------------*||
A---||-------------------||-||-------------------------------------||
D---||-------------------||-||-------------------------------------||
                                                                        
               


                                                                        
D-----------------------------------------------------------------------
D------19^--19^--19^--19^--19~~~----------------------------------------
A-----------------------------------------------------------------------
D-----------------------------------------------------------------------
A-----------------------------------------------------------------------
D-----------------------------------------------------------------------
                                                                        
Sorry for the sloppy form in the solo.  too lazy to write out all of the repeated
licks.  For the outro, you just play the intro, but it starts on the 2nd part
(out of 3).  Makes a nice little round.  Enjoy!


========================================================================
==                       TABLATURE EXPLANATION                        ==
========================================================================

----------                ----------                ----t---
----5h8--- Hammeron       ----(8)--- Ghost          ----6--- Tap
----------                ---------- Note           --------
----5p8--- Pulloff        ----------                --------

----------                ----------                -----p--
----5/8--- Slide Up       -----x---- Dead           -----7-- Pop
----------                ---------- Note           --s-----
----5\8--- Slide Down     ----------                --5----- Slap 

----------                ||------|| Repeat         --------
----5~~~-- Vibrato        ||*----*||                ---5^--- Bend
----------                ||*----*||                --------
----------                ||------||                --------

----------                ----------                --------
-4:------- Time           ----------                --------
-4:------- Signature      ----------                --------
----------                ----------                --------
Comments