Creed - Stand Here With Me Chords & Tabs

 

Stand Here With Me Chords & Tabs

Creed Chords & Tabs

Version: 2 Type: Tab 0 ratings
1 star 2 stars 3 stars 4 stars 5 stars
comments

Stand Here With Me Tab

Transcriber: J. Keller

E-Mail: x_hellfire_x@hotmail.com



Drop D Tuning

x = Palm Mute
/ = Slide Up
^ = Bend String
h = Hit On
v = Vibrato

I havent had time to do the solo but ill do it soon

E|-----------------------2v-----------2---2-3h-3-3-2v--------------------------------------------------|
G|---2-3h--2-3h--3-5-2-3----------3-------3----3-3-3v--3----------------------3------------------------|
B|-----------------------------0----0---0-0----0-0-0---2----------------6-7v--2----------------6-7/9v--|
D|---------------------------4-------------------------0----------7-7/9-------0----------7-7/9---------|
A|-0-----0-----0--------------------------------------------0-4-5------------------0-4-5---------------|
D|-------------------------------------------------------0----------------------0----------------------|
      ^intro^

E|------------------------2v----------2---3^-3-2------------------------------------------------------|
G|---2-3h--2-3h---3-5-2-3---------3--------------3--------------------------3-------------------------|
B|-----------------------------0----0---0--------2-----------------6-7^-7v--2-----------------6-7/9v--|
D|-2-----2------2------------4-------------------0--0--------7-7/9----------0--0--------7-7/9---------|
A|-0-----0------0-----------------------------------0--0-4-5-------------------0--0-4-5---------------|
D|--------------------------------------------------0--------------------------0----------------------|
       ^distortion kicks in this part^

E|------------------------2v----------2---2-3-3-3--2v--------------------------------------------------------|
G|---2-3h--2-3h---3-5-2-3---------3-------3-3-3-3--3v---3--------------------------3-------------------------|
B|-----------------------------0----0---0-0-0-0-0--0----2-----------------6-7^-7v--2-----------------6-7/9v--|
D|-2-----2------2------------4--------------------------0--0--------7-7/9----------0--0--------7-7/9---------|
A|-0-----0------0------------------------------------------0--0-4-5-------------------0--0-4-5---------------|
D|---------------------------------------------------------0--------------------------0----------------------|

[ Tab from: http://www.guitartabs.cc/tabs/c/creed/stand_here_with_me_tab_ver_2.html ]
E|---------------------------------2-2-2--------------------------------------------------------------------------|
G|---------------------------------2-2-2--------------------------------------------------------------------------|
B|-------5-5-5-5-5-5-5-5-5-5-5-5-5-4-4-4-3-3-3-3-3-3--------------------------------------------------------------|
D|-0-----5-5-5-5-5-5-5-5-5-5-5-5-5-4-4-4-3-3-3-3-3-3--3--3-3-3-3-5-5-5-0--0x-0x-0-0--0x-0--0-0-0-0-0---0-0-0-0-0--|
A|-0-----3-3-3-3-3-3-3-3-3-3-3-3-3-2-2-2-1-1-1-1-1-1--3--3-3-3-3-5-5-5-0--0x-0x-3-5--0x-0--0-0-0-0-0---3-5-5-5-0--|
D|-0--------------------------------------------------3--3-3-3-3-5-5-5-0--0x-0x-0-0--0x-0--0-0-0-0-0---0-0-0-0-0--|


E|---------------------------------2-2-2---------------------------------------------------------------|
G|---------------------------------2-2-2---------------------------------------------------------------|
B|-------5-5-5-5-5-5-5-5-5-5-5-5-5-4-4-4-3-3-3-3-3-3---------------------------------------------------|
D|-0-----5-5-5-5-5-5-5-5-5-5-5-5-5-4-4-4-3-3-3-3-3-3--3--3-3-3-3-5-5-5-0--0x-0x-0-0--0x-0--0-0-0-------|
A|-0-----3-3-3-3-3-3-3-3-3-3-3-3-3-2-2-2-1-1-1-1-1-1--3--3-3-3-3-5-5-5-0--0x-0x-3-5--0x-0--0-0-0---3^--|
D|-0--------------------------------------------------3--3-3-3-3-5-5-5-0--0x-0x-0-0--0x-0--0-0-0-5-----|


E|------------------------2v----------2---3^-3-2------------------------------------------------------|
G|---2-3h--2-3h---3-5-2-3---------3--------------3--------------------------3-------------------------|
B|-----------------------------0----0---0--------2-----------------6-7^-7v--2-----------------6-7/9v--|
D|-2-----2------2------------4-------------------0--0--------7-7/9----------0--0--------7-7/9---------|
A|-0-----0------0-----------------------------------0--0-4-5-------------------0--0-4-5---------------|
D|--------------------------------------------------0--------------------------0----------------------|


E|------------------------2v----------2---2-3-3-3--2v--------------------------------------------------------|
G|---2-3h--2-3h---3-5-2-3---------3-------3-3-3-3--3v---3--------------------------3-------------------------|
B|-----------------------------0----0---0-0-0-0-0--0----2-----------------6-7^-7v--2-----------------6-7/9v--|
D|-2-----2------2------------4--------------------------0--0--------7-7/9----------0--0--------7-7/9---------|
A|-0-----0------0------------------------------------------0--0-4-5-------------------0--0-4-5---------------|
D|---------------------------------------------------------0--------------------------0----------------------|


E|-------------------------------------------------2v-----------2---3^-3-2-----|
G|---------------------------2-3h---2-3h---3-5-2-3----------3--------------3v--|
B|----------------6-7^-7v--------------------------------0----0---0------------|
D|-0--------7-7/9----------2------2------2-------------4-----------------------|
A|-0--0-4-5----------------0------0------0-------------------------------------|
D|-0---------------------------------------------------------------------------|
     ^He plays this at the end^
Comments