Creed - Stand Here With Me Chords & Tabs

 

Stand Here With Me Chords & Tabs

Creed Chords & Tabs

Version: 10 Type: Tab 0 ratings
1 star 2 stars 3 stars 4 stars 5 stars
comments

Stand Here With Me Tab

   
----------------------------------------------------------------------------
			     STAND HERE WITH ME - Creed
----------------------------------------------------------------------------
Tabbed by:DJ_Inferno2000
Email:DJ_Inferno2000@hotmail.com

Tuning: e B G D A D

This is a great song on the solo is fairly simple.


e|---------------------------------------------------------------|
B|--------9(b)-7~--7-7-10-7~~------7-10-7-10-7-5-7-5-2-0---------|
G|---------------------------------------------------------------|
D|--12\------------------------10\-------------------------------|
A|--12\------------------------10\-------------------------------|
D|--12\------------------------10\-------------------------------|

e|---------------------14b-15b-13~~--13-10-12----10--------------|
B|--------------------------------------------13----13b-13b13~~--|
G|---------------------------------------------------------------|
D|--5-4-5-4-5-4--------------------------------------------------|
A|---------------5-----------------------------------------------|
D|---------------0-----------------------------------------------|


e|---------------------------------------------------------------|
B|---------------------------------------------------------------|
G|--9-10-12-10-9-10----9-------------------10--------------10/---|
D|------------------12---10-12------10-12----12-10-12p.h.--------|
A|---------------------------------------------------------------|
D|-------------------------------------------------------------\0|
[ Tab from: http://www.guitartabs.cc/tabs/c/creed/stand_here_with_me_tab_ver_10.html ]
e|-14-12-14------14-12-14-15~-14-12-14-15-14-12-14------14-12-14-|
B|----------15~~-----------------------------------15~~----------|
G|---------------------------------------------------------------|
D|---------------------------------------------------------------|
A|---------------------------------------------------------------|
D|---------------------------------------------------------------|

e|15~-14-12-14-15-14-12-14------14-12-14-15~-14-12-14-15-14-12-14|
B|--------------------------15~~---------------------------------|
G|---------------------------------------------------------------|
D|---------------------------------------------------------------|
A|---------------------------------------------------------------|
D|---------------------------------------------------------------|


e|--17-14--14-17-14--14-17-14--14-17-14--14-19-14--14-19-14------|
B|-------15--------15--------15--------15--------15--------------|
G|---------------------------------------------------------------|
D|---------------------------------------------------------------|
A|---------------------------------------------------------------|
D|---------------------------------------------------------------|


e|--17-14--14-18b-18b-18b-16~------------------------------------|
B|-------15------------------------------------------------------|
G|---------------------------------------------------------------|
D|------------------------------12\------------------------------|
A|------------------------------12\------------------------------|
D|------------------------------12\------------------------------|

****************************************************************************

Thats about it. Please feel free to comment and please rate!!!
Comments