Creed - Six Feet From The Edge Chords & Tabs

 

Six Feet From The Edge Chords & Tabs

Creed Chords & Tabs

Version: 1 Type: Bass Tab 2 ratings
1 star 2 stars 3 stars 4 stars 5 stars
comments

Six Feet From The Edge Bass Tab

Submitted by: Hund
Song title: Six feet from the edge
Artist: Creed
File type: btab

This isntsomething for beginners because it is very dificould to play.

Here is the intro:

-2----------4--------2----------3-------7/8---
----4-----------7-------3-----8------9--------
----------8-9------8------------4-------------
----------------------------------------------

[ Tab from: http://www.guitartabs.cc/tabs/c/creed/six_feet_from_the_edge_btab.html ]
----------------------------------------------
-------6---------5---7---8---3--5-------------
--8---------5------------7--------------------
1------8-------5-----5------2----9-------8-9--


And here comes the verse:

-----------------------------------------------
----------------------4------------------------4 times
----------3-----4-----0---------8--------11----
---0------------0-------------------17/15------

The refreng goes on the guitar and the song dont have any
solo so there you have the whole song.

You can e-mail me on jack_farsund@hotmail.com if you find 
something wrong in my tab but i thing everything its ok.

Like i allways say:
Good bye my bass friends.

Comments