Creed - Sister Chords & Tabs

 

Sister Chords & Tabs

Creed Chords & Tabs

Version: 1 Type: Tab 0 ratings
1 star 2 stars 3 stars 4 stars 5 stars
comments

Sister Tab

   
X===============================PLEASE NOTE==============================X
X  This tab is all my own and represents my interpretation of the song.  X
X You may only use this tab for private study, scholarship, or research. X
X  Do not change, deface, mutilate, or in any other way alter this tab.  X
X   You must email me first if you want to use this tab on your site.    X
X========================================================================X


*Sister*
Transcribed by Obscured@san.rr.com
Http://home.san.rr.com/obscured


Tuning: D A D G B E


INTRO
                                             x2
|----------------------------------------------|
|----------------------------------------------|
|-11-11-12-12-14-14-14-14-11/12-12\11-11-12\11-|
|----------------------------------------------|
|-9--9--10-10-12-12-12-12-9-/10-10\9--9--10\9--|
|----------------------------------------------|

|-10-10-10-12-12-12-12-12-13-13-13-15-15-15-15-15-|
|-10-10-10-12-12-12-12-12-13-13-13-15-15-15-15-15-|
|-7--7--7--9--9--9--9--9--10-10-10-12-12-12-12-12-|
|-------------------------------------------------|
|-------------------------------------------------|
|-------------------------------------------------|

|-12/13-10-12/13-10-10-|-12/13-10-12/13-10-10-|
|-12/13-10-12/13-10-10-|-12/13-10-12/13-10-10-|
|-9-/10-7--9-/10-7--7--|-9-/10-7--9-/10-7--7--|
|----------------------|----------------------|
|----------------------|----------------------|
|----------------------|----------------------|

|-12/13-15-12/13-15-15-|-12/13-10-12/13-10-10-|
|-12/13-15-12/13-15-15-|-12/13-10-12/13-10-10-|
|-9-/10-12-9-/10-12-12-|-9-/10-7--9-/10-7--7--|
|----------------------|----------------------|
|----------------------|----------------------|
|----------------------|----------------------|


Guitar reenters with these harmonics
|-------------|
|-7-7-7-7-7-7-|
|-7-7-7-7-7-7-|
|-------------|
|-------------|
|-------------|


Then move to this riff
|--------------------------------------|
|--------------------------------------|
|--------------------------------------|
|-------7----------------------------5-|
|---7h9------7h9\5----7h9\5----7h9\5---|
|-0--------0--------0--------0---------|


VERSE  
|--------------------------------------------|
|--------------------------------------------|
|--------------------------------------------|
|-------7----------------------------------5-|
|---7h9--------7h9\5------7h9\5------7h9\5---|
|-0--------0-0--------0-0--------0-0---------|
  .        ...        ...        ...


PRECHORUS
                                            x3
|---------------------------------------------|
|---------------------------------------------|
|---------------------------------11/12-11/12-|
|-0-0-10-9-0-0-9-8-0-0-8-7-X-X--X-------------|
|-0-0-10-9-0-0-9-8-0-0-8-7-X-X--X-9-/10-9-/10-|
|-0-0-10-9-0-0-9-8-0-0-8-7-X-X--X-------------|
  ........................

|-------------------------------------------|
|-------------------------------------------|
|--------------------------7/9---------9/11-|
|-0-0-10-9-0-0-9-8-0-0-8-7-----X-X-X-X------|
|-0-0-10-9-0-0-9-8-0-0-8-7-5/7-X-X-X-X-7/9--|
|-0-0-10-9-0-0-9-8-0-0-8-7-----X-X-X-X------|
  ........................
[ Tab from: http://www.guitartabs.cc/tabs/c/creed/sister_tab.html ]
|---------------------------------------------|
|---------------------------------------------|
|--------------------------9/11---------11/12-|
|-0-0-10-9-0-0-9-8-0-0-8-7------X-X-X-X-------|
|-0-0-10-9-0-0-9-8-0-0-8-7-7/9--X-X-X-X-9-/10-|
|-0-0-10-9-0-0-9-8-0-0-8-7------X-X-X-X-------|

|-------------------------------------------|
|-------------------------------------------|
|--------------------------7/9---------9/11-|
|-0-0-10-9-0-0-9-8-0-0-8-7-----X-X-X-X------|
|-0-0-10-9-0-0-9-8-0-0-8-7-5/7-X-X-X-X-7/9--|
|-0-0-10-9-0-0-9-8-0-0-8-7-----X-X-X-X------|

|---------------------------------------------|
|---------------------------------------------|
|--------------------------9/11---------11/12-|
|-0-0-10-9-0-0-9-8-0-0-8-7------X-X-X-X-------|
|-0-0-10-9-0-0-9-8-0-0-8-7-7/9--X-X-X-X-9-/10-|
|-0-0-10-9-0-0-9-8-0-0-8-7------X-X-X-X-------|

|-------------------------------------------|
|-------------------------------------------|
|--------------------------7/9---------9/11-|
|-0-0-10-9-0-0-9-8-0-0-8-7-----X-X-X-X------|
|-0-0-10-9-0-0-9-8-0-0-8-7-5/7-X-X-X-X-7/9--|
|-0-0-10-9-0-0-9-8-0-0-8-7-----X-X-X-X------|


CHORUS
|----------------------|
|-3--------------------|
|-2----4--2------------|
|-0----4--2--5----2----|
|-0----2--0--5----2----|
|-0----------5----2----|


BRIDGE

 Guitar 1
|----------|
|----------|
|----------|
|-0--------|
|-0--------|
|-0--------|

 Guitar 2                                    x2
|----------------------------------------------|
|----------------------------------------------|
|-11-11-12-12-14-14-14-14-11/12-12\11-11-12\11-|
|----------------------------------------------|
|-9--9--10-10-12-12-12-12-9-/10-10\9--9--10\9--|
|----------------------------------------------|


VERSE 2 - Same


PRECHORUS 2 - Same


CHORUS 2 - Same


INTERLUDE
|-------------------------------------------|
|-------------------------------------------|
|--------------------------7/9---------9/11-|
|-0-0-10-9-0-0-9-8-0-0-8-7-----X-X-X-X------|
|-0-0-10-9-0-0-9-8-0-0-8-7-5/7-X-X-X-X-7/9--|
|-0-0-10-9-0-0-9-8-0-0-8-7-----X-X-X-X------|

|---------------------------------------------|
|---------------------------------------------|
|--------------------------9/11---------11/12-|
|-0-0-10-9-0-0-9-8-0-0-8-7------X-X-X-X-------|
|-0-0-10-9-0-0-9-8-0-0-8-7-7/9--X-X-X-X-9-/10-|
|-0-0-10-9-0-0-9-8-0-0-8-7------X-X-X-X-------|

|-------------------------------------------|
|-------------------------------------------|
|--------------------------7/9---------9/11-|
|-0-0-10-9-0-0-9-8-0-0-8-7-----X-X-X-X------|
|-0-0-10-9-0-0-9-8-0-0-8-7-5/7-X-X-X-X-7/9--|
|-0-0-10-9-0-0-9-8-0-0-8-7-----X-X-X-X------|

|---------------------------------------------|
|---------------------------------------------|
|--------------------------9/11---------11/12-|
|-0-0-10-9-0-0-9-8-0-0-8-7------X-X-X-X-------|
|-0-0-10-9-0-0-9-8-0-0-8-7-7/9--X-X-X-X-9-/10-|
|-0-0-10-9-0-0-9-8-0-0-8-7------X-X-X-X-------|

|-------------------------------------------|
|-------------------------------------------|
|--------------------------7/9---------9/11-|
|-0-0-10-9-0-0-9-8-0-0-8-7-----X-X-X-X------|
|-0-0-10-9-0-0-9-8-0-0-8-7-5/7-X-X-X-X-7/9--|
|-0-0-10-9-0-0-9-8-0-0-8-7-----X-X-X-X------|

|-------------------------------------------|
|-------------------------------------------|
|--------------------------9/11-11-11-11-11-|
|-0-0-10-9-0-0-9-8-0-0-8-7------------------|
|-0-0-10-9-0-0-9-8-0-0-8-7-7/9--9--9--9--9--|
|-0-0-10-9-0-0-9-8-0-0-8-7------------------|


OUTRO - Play intro

Comments