Creed - Signs Chords & Tabs

 

Signs Chords & Tabs

Creed Chords & Tabs

Version: 5 Type: Tab 0 ratings
1 star 2 stars 3 stars 4 stars 5 stars
comments

Signs Tab

   
Song:	Signs
Artist:	Creed 
Album:	Weathered

comments/Corrcetions: obanin23@ticnet.com

Tuning: Drop-D


INTRO:
Repeat 2x                                          Repeat 2x
--------------------------------------------------|------------------
--------------------------------------------------|------------------
--------------------------------------------------|------------------
--------------------------------------------------|-2h3p2p0---2h3p2p0
--------------------------------------------------|-2h3p2p0---2h3p2p0
-2h3p2p0---2h3p2p0---2h3p2p0-2h3p2p0--2h3p2p0-2b--|-2h3p2p0---2h3p2p0
                                               

                              VERSE (slight damping)
                              REPEAT 4x
-----------------------------|---------------------------------------
-----------------------------|---------------------------------------
-----------------------------|---------------------------------------
-2h3p2p0-2h3p2p0--2h3p2p0-2b-|-2h3p2p0---2h3p2p0---2h3p2p0---2h3p2p0-
-2h3p2p0-2h3p2p0--2h3p2p0-2b-|-2h3p2p0---2h3p2p0---2h3p2p0---2h3p2p0-
-2h3p2p0-2h3p2p0--2h3p2p0-2b-|-2h3p2p0---2h3p2p0---2h3p2p0---2h3p2p0-


                                                 BRIDGE 
                                                 REPEAT 2x            
------------------------------------------------|---------------------
------------------------------------------------|---------------------
------------------------------------------------|-3333-3333-3333-3333-
-2h3p2p0---2h3p2p0---2h3p2p0--02320-023-2h3p2p0-|-3333-3333-3333-3333-
-2h3p2p0---2h3p2p0---2h3p2p0--02320-023-2h3p2p0-|-1111-1111-1111-1111-
-2h3p2p0---2h3p2p0---2h3p2p0--02320-023-2h3p2p0-|---------------------
                              xxxxx xxx xxxxxxx   xxxx xxxx xxxx xxxx 


                                          1st X                2nd X
-----------------------------------------|--------------------|-------
-----------------------------------------|--------------------|-5-----
-2222-2222-2222-2222-5555-5555-5555-5555-|-5x55------4x44-----|-4-----
-2222-2222-2222-2222-3333-3333-3333-3333-|-5x55------4x44-----|-2-----
-0000-0000-0000-0000-3333-3333-3333-3333-|-3x33-3h5--2x22-2h4-|-2-----
---------------------3333-3333-3333-3333-|--------------------|-2-----
 xxxx xxxx xxxx xxxx xxxx xxxx xxxx xxxx   x xx x    x xx x      ~~~~


REPEAT VERSE PATTERN 5x

[ Tab from: http://www.guitartabs.cc/tabs/c/creed/signs_tab_ver_5.html ]
BRIDGE                                                         1st x
--------------------------------------------------------------|-------
--------------------------------------------------------------|-------
-3333-3333-3333-3333--2222-2222-2222-2222-5555-5555-5555-5555-|-5x55--
-3333-3333-3333-3333--2222-2222-2222-2222-3333-3333-3333-3333-|-5x55--
-1111-1111-1111-1111--0000-0000-0000-0000-3333-3333-3333-3333-|-3x33--
------------------------------------------3333-3333-3333-3333-|-------
 xxxx xxxx xxxx xxxx  xxxx xxxx xxxx xxxx xxxx xxxx xxxx xxxx   x x 


                 (no muting)
----------------|-----------------------------------------------
----------------|-------------------------------------5---------
------4x44------|-3--3--3--3--2--2--2--2--5--5--5--5--4---------
------4x44------|-3--3--3--3--2--2--2--2--3--3--3--3--2---------
-3h5--2x22--2h4-|-1--1--1--1--0--0--0--0--3--3--3--3--2---------
----------------|-------------------------3--3--3--3--2---------
      x x                                              ~~~~~~   


CHORUS pt.1                       CHORUS pt.2
REPEAT 6x                         REPEAT 8x         CHORUS pt.3       
---------------------------------|-----------------|------------------
---------------------------------|-----------------|------------------
---------------------------------|-----------------|------------------
---------------------------------|-3--8--3--7--3-0-|-3--8--3--7--3-0--
-------1-1-1-------0-0-0---------|-3--8--3--7--3-0-|-3--8--3--7--3-0--
-3-3-3-------3-3-3-------3-3-0-0-|-3--8--3--7--3-0-|-3--8--3--7--3-0--


                                                         BRIDGE 
--------------------------------------------------------|-------------
--------------------------------------------------------|-------------
--------------------------------------------------------|-10-10-10-10-
-3--8--3--7--3333---3--8--3--7--3-0---3--8--3--7--3-333-|-8--8--8--8--
-3--8--3--7--3333---3--8--3--7--3-0---3--8--3--7--3-333-|-8--8--8--8--
-3--8--3--7--3333---3--8--3--7--3-0---3--8--3--7--3-333-|-8--8--8--8--
              xxx                                   xxx 


----------------------------------------------------------------------
----------------------------------------------------------------------
-9--9--9--9--5--5--5--5--5-55------4-44------3--3--3--3--2--2--2--2---
-7--7--7--7--3--3--3--3--5-55------4-44------3--3--3--3--2--2--2--2---
-7--7--7--7--3--3--3--3--3x33-3/5--2x22-2/4--1--1--1--1--0--0--0--0---
-7--7--7--7--3--3--3--3-----------------------------------------------



                          FINAL CHORUS - REPEAT 4x                    
-------------------------|--------------------------------------------
-------------------------|--------------------------------------------
-5--5--5--5--4--4--4--4--|--------------------------------------------
-3--3--3--3--2--2--2--2--|--3--8---3--7---3-0---3--8---3--7---3-0-----
-3--3--3--3--2--2--2--2--|--3--8---3--7---3-0---3--8---3--7---3-0-----
-3--3--3--3--2--2--2--2--|--3--8---3--7---3-0---3--8---3--7---3-0-----
Comments