Creed - Signs Chords & Tabs

 

Signs Chords & Tabs

Creed Chords & Tabs

Version: 4 Type: Tab 0 ratings
1 star 2 stars 3 stars 4 stars 5 stars
comments

Signs Tab

   
Creed

Signs

Weathered

(D-A-D-G-B-E)

PM- Palm Mute
B- Bend
Harm- Harmonics
/- Slide Up
\- Slide Down

Intro 1 (mild distortion)(slight bend when needed)
e|---------------------------------------------------|
b|---------------------------------------------------|
g|---------------------------------------------------|
D|---------------------------------------------------|
A|---------------------------------------------------|
D|-2b-2-0---2b-2-0---2b-2-0--2b-2-0---2b-2-0---0-3b--|


Intro 2
e|------------------------------------------------------|
b|------------------------------------------------------|
g|------------------------------------------------------|
D|---------------------------------------------0-0-0----|
A|-2b-2-0---2b-2-0---2b-2-0--2b-2-0---2b-2-0---0-0-0----|
D|-2b-2-0---2b-2-0---2b-2-0--2b-2-0---2b-2-0---0-0-0----|
  					     PM......                                      


Riff 1					       Fill 1   Fill 2 (listen to song for verse)
e|--------------------------------------------|-------|------------------|
b|--------------------------------------------|-------|------------------|
g|--------------------------------------------|-------|------------------|
D|-2b-2-0----2b-2-0----2b-2-0----2b-2-0-------|-------|------------------|
A|-2b-2-0----2b-2-0----2b-2-0----2b-2-0-------|-------|------------------|
D|-2b-2-0----2b-2-0----2b-2-0----2b-2-0-------|---3b--|--5-5--3-3--2-2---|
					     Harm....  Harm...........

Riff 2
e|------------------------------------------------------------------|
b|------------------------------------------------------------------|
g|------------------------------------------------------------------|
D|-2b-2-0----2b-2-0----2b-2-0-----0-0-2-2--2-0----2/3--0-0--3\2-----|
A|-2b-2-0----2b-2-0----2b-2-0-----0-0-2-2--2-0----2/3--0-0--3\2-----|
D|-2b-2-0----2b-2-0----2b-2-0-----0-0-2-2--2-0----2/3--0-0--3\2-----|
			        PM...........       PM.....


Chorus                                                                          
e|---------------------------------------------------------------------|
b|---------------------------------------------------------------------|
g|---------------------------------------------------------------------|
D|---------------------------------------------------------------------|
A|-8-8-8-8-8-8-8-8-8-8-8-8-8-8---/----7-7-7-7-7-7-7-7-7-7-7-7-7-7---/--|
D|-8-8-8-8-8-8-8-8-8-8-8-8-8-8---/----7-7-7-7-7-7-7-7-7-7-7-7-7-7---/--|
PM........................         ..........................


(cont.)                                                                             
e|-------------------------------------------------------------------------------|
b|-------------------------------------------------------------------------------|
g|-------------------------------------------------------------------------------|
D|-------------------------------0-----------------------------------------------|
A|-3-3-3-3-3-3-3-3-3-3-3-3-3-3---0---10-10-10-10-10/12--12\---9-9-9-9-9/10--10\9-|
D|-3-3-3-3-3-3-3-3-3-3-3-3-3-3---0---10-10-10-10-10/12--12\---9-9-9-9-9/10--10\9-|
PM........................         PM............    	    PM........	      
                                                                              
[ Tab from: http://www.guitartabs.cc/tabs/c/creed/signs_tab_ver_4.html ]
Chorus (last time through)                                                                        
e|---------------------------------------------------------------------|
b|---------------------------------------------------------------------|
g|---------------------------------------------------------------------|
D|---------------------------------------------------------------------|
A|-8-8-8-8-8-8-8-8-8-8-8-8-8-8---/----7-7-7-7-7-7-7-7-7-7-7-7-7-7---/--|
D|-8-8-8-8-8-8-8-8-8-8-8-8-8-8---/----7-7-7-7-7-7-7-7-7-7-7-7-7-7---/--|
PM...........................         ..........................
                                                                      

(cont.)                                                                             
e|-----------------------------------|
b|-----------------------------------|
g|-----------------------------------|
D|-------------------------------0---|
A|-3-3-3-3-3-3-3-3-3-3-3-3-3-3---0---|
D|-3-3-3-3-3-3-3-3-3-3-3-3-3-3---0---|
PM...........................           
                                                                              

Repeat riff 1 and 2

Repeat chorus....then play this

e|---------------------------------|------------------------------------|
b|---------------------------------|------------------------------------|
g|---------------------------------|------------------------------------|
D|-8-8-8-8-8-8-8-8-8-8-8-8-8-8--0--|--7-7-7-7-7-7-7-7-7-7-7-7-7-7--0----|
A|-8-8-8-8-8-8-8-8-8-8-8-8-8-8--0--|--7-7-7-7-7-7-7-7-7-7-7-7-7-7--0----|
D|-8-8-8-8-8-8-8-8-8-8-8-8-8-8--0--|--7-7-7-7-7-7-7-7-7-7-7-7-7-7--0----|

e|-----------------------------------|
b|-----------------------------------|
g|-----------------------------------|
D|-3-3-3-3-3-3-3-3-3-3-3-3-3-3---0---|
A|-3-3-3-3-3-3-3-3-3-3-3-3-3-3---0---|
D|-3-3-3-3-3-3-3-3-3-3-3-3-3-3---0---|


Pre-Bridge (Tremolo Pedal)
e|---------------------|
b|---------------------|
g|---------------------|
D|---------------------|
A|----1------0---------|
D|-3------3------3--0--|
                                                                             

Bridge
e|---------------------------|
b|---------------------------|
g|------3---------2----------|
D|-3----3----3----2----3--0--|
A|-3----1----3----0----3--0--|
D|-3---------3---------3--0--|



Bridge (Fill)
e|---------------------------|
b|---------------------------|
g|------3---------2----------|
D|-3----3----3----2---0-0-0--|
A|-3----1----3----0---0-0-0--|
D|-3---------3--------0-0-0--|
                    PM......

Chorus
e|---------------------------------|----------------------------------|
b|---------------------------------|----------------------------------|
g|---------------------------------|----------------------------------|
D|-8-8-8-8-8-8-8-8-8-8-8-8-8-8--0--|--7-7-7-7-7-7-7-7-7-7-7-7-7-7--0--|
A|-8-8-8-8-8-8-8-8-8-8-8-8-8-8--0--|--7-7-7-7-7-7-7-7-7-7-7-7-7-7--0--|
D|-8-8-8-8-8-8-8-8-8-8-8-8-8-8--0--|--7-7-7-7-7-7-7-7-7-7-7-7-7-7--0--|
                                                                              
e|-------------------------------------------------------------------------|
b|-------------------------------------------------------------------------|
g|------------------------------------12-------12/14------11------11/12----|
D|-3-3-3-3-3-3-3-3-3-3-3-3-3-3---0-0---x--0-0---x--x--0-0--x--0-0--x-------|
A|-3-3-3-3-3-3-3-3-3-3-3-3-3-3---0-0--10--0-0--10/12--0-0--9--0-0--9/10----|
D|-3-3-3-3-3-3-3-3-3-3-3-3-3-3---0-0------0-0---------0-0-----0-0----------|
			       PM...      ....        ....    ....


Song ends with the bridge
e|---------------------------|
b|---------------------------|
g|------3---------2----------|
D|-3----3----3----2----3--0--|
A|-3----1----3----0----3--0--|
D|-3---------3---------3--0--|
 
                                                                             
Comments