Creed - Signs Chords & Tabs

 

Signs Chords & Tabs

Creed Chords & Tabs

Version: 1 Type: Tab 0 ratings
1 star 2 stars 3 stars 4 stars 5 stars
comments

Signs Tab

   
#----------------------------------PLEASE NOTE--------------------------------# 
#This file is the author's own work and represents their interpretation of the# 
#song. You may only use this file for private study, scholarship, or research.# 
#-----------------------------------------------------------------------------# 
#-----------------------------------------------------------------------------# 

Author/Artist: Creed 
Title: Signs 
Album: Weathered 
Tuning: Drop D 
Transcribed by: Matty N
Email: Matt2332@excite.com

Palm mute all open 0s in the song. 

Intro (distortion) 
--------------------------------------------------------------------| 
--------------------------------------------------------------------| 
--------------------------------------------------------------------| 
--------------------------------------------------------------------| 
--------------------------------------------------------------------| 
-2h3--2--0----2h3--2--0----2h3p2p0----2h3--2--0----2h3--2--0----2b--| 

Then this - 
--------------------------------------------------------------------------| 
--------------------------------------------------------------------------| 
--------------------------------------------------------------------------| 
-------------------------------------------------------------------2-0-0--| 
-------------------------------------------------------------------2-0-0--| 
-2h3--2--0----2h3--2--0----2h3p2p0----2h3--2--0----2h3--2--0--2b---2-0-0--| 

Then this (in at 0:12) 
--------------------------------------------------------------------| 
--------------------------------------------------------------------| 
--------------------------------------------------------------------| 
-2h3--2--0----2h3--2--0----2h3p2p0----2h3--2--0----2h3--2--0----2b--| 
-2h3--2--0----2h3--2--0----2h3p2p0----2h3--2--0----2h3--2--0----2b--| 
-2h3--2--0----2h3--2--0----2h3p2p0----2h3--2--0----2h3--2--0----2b--| 

------------------------------------------------------------------| 
------------------------------------------------------------------| 
------------------------------------------------------------------| 
-2h3--2--0----2h3--2--0----2h3p2p0----2h3--2--0----2h3--20---2b--| 
-2h3--2--0----2h3--2--0----2h3p2p0----2h3--2--0----2h3--20---2b--| 
-2h3--2--0----2h3--2--0----2h3p2p0----2h3--2--0----2h3--20--2b--| 


Verse (in at 0:24) 
------------------------------------------------|-----| 
------------------------------------------------|-----| 
------------------------------------------------|-----| 
-2h3--2-0----2h3--2-0----2h3--2-0----2h3--2--0--|--x--| 
-2h3--2-0----2h3--2-0----2h3--2-0----2h3--2--0--|--x--| 
-2h3--2-0----2h3--2-0----2h3--2-0----2h3--2--0--|--x--| 

-----------------------------------| 
-----------------------------------| 
-----------------------------------| 
-2h3--2-0----2h3--2-0----2h3--2-0--| 
-2h3--2-0----2h3--2-0----2h3--2-0--| 
-2h3--2-0----2h3--2-0----2h3--2-0--| 

Fill 1 (all palm muted, in at 0:32) 
-----------------------------------------------| 
-----------------------------------------------| 
-----------------------------------------------| 
-2-2--3-3--5--0-0-0---2h32-0---0-0---2h3-2-0--| 
-2-2--3-3--5--0-0-0---2h3-2-0---0-0---2h3-2-0--| 
-2-2--3-3--5--0-0-0---2h32-0---0-0---2h3-2-0--| 

------------------------------------------------|-----| 
------------------------------------------------|-----| 
------------------------------------------------|-----| 
-2h3--2-0----2h3--2-0----2h3--2-0----2h3--2--0--|--x--| 
-2h3--2-0----2h3--2-0----2h3--2-0----2h3--2--0--|--x--| 
-2h3--2-0----2h3--2-0----2h3--2-0----2h3--2--0--|--x--| 

-----------------------------------| 
-----------------------------------| 
-----------------------------------| 
-2h3--2-0----2h3--2-0----2h3--2-0--| 
-2h3--2-0----2h3--2-0----2h3--2-0--| 
-2h3--2-0----2h3--2-0----2h3--2-0--| 

Fill 2 (in at 0:40) 
------------| 
------------| 
------------| 
------------| This bend is very slight 
------5ph^--| 
-3b---------| 


Chorus (all palm muted with a light distortion, in at 1:09) 
---------------------------------|----------------------------------| 
---------------------------------|----------------------------------| 
---------------------------------|----------------------------------| 
------------------------------0--|-------------------------------0--| 
------------------------------0--|-------------------------------0--| 
-8-8-8-8-8-8-8-8-8-8-8-8-8-8-----|--7-7-7-7-7-7-7-7-7-7-7-7-7-7-----| 
[ Tab from: http://www.guitartabs.cc/tabs/c/creed/signs_tab.html ]
------------------------------|-------------------------|-------------------| 
------------------------------|-------------------------|-------------------| 
------------------------------|-------------------------|-------------------| 
------------------------------|-------------------------|-------------------| 
------------------------------|-------------------------|-------------------| 
-3-3-3-3-3-3-3-3-3-3-3-3-3-3--|--10-10-10-10--10/12\10--|--9-9-9-9--9/10\9--| 

---------------------------------|----------------------------------|--------- 
---------------------------------|----------------------------------|--------- 
---------------------------------|----------------------------------|--------- 
------------------------------0--|-------------------------------0--|--------- 
------------------------------0--|-------------------------------0--|--------- 
-8-8-8-8-8-8-8-8-8-8-8-8-8-8-----|--7-7-7-7-7-7-7-7-7-7-7-7-7-7-----|--------- 

------------------------------------| 
------------------------------------| 
------------------------------------| 
--------------------------------2~--| 
--------------------------------2~--| 
-3-3-3-3-3-3-3-3-3-3-3-3-3-3----2~--| 

Then the verse (in at 1:30) 

Then the chorus (in at 2:28) 

Heavy chorus (heavy distortion, in at 2:39) 
---------------------------------|----------------------------------| 
---------------------------------|----------------------------------| 
---------------------------------|----------------------------------| 
-8-8-8-8-8-8-8-8-8-8-8-8-8-8--0--|--7-7-7-7-7-7-7-7-7-7-7-7-7-7--0--| 
-8-8-8-8-8-8-8-8-8-8-8-8-8-8--0--|--7-7-7-7-7-7-7-7-7-7-7-7-7-7--0--| 
-8-8-8-8-8-8-8-8-8-8-8-8-8-8--0--|--7-7-7-7-7-7-7-7-7-7-7-7-7-7--0--| 

-----------------------------------| 
-----------------------------------| 
-----------------------------------| 
-3-3-3-3-3-3-3-3-3-3-3-3-3-3---2~--| 
-3-3-3-3-3-3-3-3-3-3-3-3-3-3---2~--| 
-3-3-3-3-3-3-3-3-3-3-3-3-3-3---2~--| 


Interlude (tremolo effect, in at 2:49) 
---------------------| 
---------------------| 
---------------------| 
---------------------| 
----1------0---------| 
-3------3------3--0--| 

Bridge (in at 3:07) 
---------------------------| 
---------------------------| 
------3---------2----------| 
-3----3----3----2----3--0--| 
-3----1----3----0----3--0--| 
-3---------3---------3--0--| 

Or play it this way - 
---------------------------| 
---------------------------| 
---------------------------| 
-3----8----3----7----3--0--| 
-3----8----3----7----3--0--| 
-3----8----3----7----3--0--| 

Come on in at 3:33 
---------------------------| 
---------------------------| 
------3---------2----------| 
-3----3----3----2---0-0-0--| 
-3----1----3----0---0-0-0--| 
-3---------3--------0-0-0--| 

Last chorus (in at 3:40) 
---------------------------------|----------------------------------| 
---------------------------------|----------------------------------| 
---------------------------------|----------------------------------| 
-8-8-8-8-8-8-8-8-8-8-8-8-8-8--0--|--7-7-7-7-7-7-7-7-7-7-7-7-7-7--0--| 
-8-8-8-8-8-8-8-8-8-8-8-8-8-8--0--|--7-7-7-7-7-7-7-7-7-7-7-7-7-7--0--| 
-8-8-8-8-8-8-8-8-8-8-8-8-8-8--0--|--7-7-7-7-7-7-7-7-7-7-7-7-7-7--0--| 

---------------------------------|--------------------------------------------| 
---------------------------------|--------------------------------------------| 
---------------------------------|-------12b------12/14-------11b------11/12--| 
-3-3-3-3-3-3-3-3-3-3-3-3-3-3--0--|--0-0------0-0---------0-0------0-0---------| 
-3-3-3-3-3-3-3-3-3-3-3-3-3-3--0--|--0-0--10b-0-0--10/12--0-0---9b-0-0---9/10--| 
-3-3-3-3-3-3-3-3-3-3-3-3-3-3--0--|--0-0------0-0---------0-0------0-0---------| 

---------------------------------|----------------------------------| 
---------------------------------|----------------------------------| 
---------------------------------|----------------------------------| 
-8-8-8-8-8-8-8-8-8-8-8-8-8-8--0--|--7-7-7-7-7-7-7-7-7-7-7-7-7-7--0--| 
-8-8-8-8-8-8-8-8-8-8-8-8-8-8--0--|--7-7-7-7-7-7-7-7-7-7-7-7-7-7--0--| 
-8-8-8-8-8-8-8-8-8-8-8-8-8-8--0--|--7-7-7-7-7-7-7-7-7-7-7-7-7-7--0--| 

-----------------------------------| 
-----------------------------------| 
-----------------------------------| 
-3-3-3-3-3-3-3-3-3-3-3-3-3-3---2~--| 
-3-3-3-3-3-3-3-3-3-3-3-3-3-3---2~--| 
-3-3-3-3-3-3-3-3-3-3-3-3-3-3---2~--| 


Bridge (in at 4:01) 
---------------------------| 
---------------------------| 
------3---------2----------| 
-3----3----3----2----3--0--| 
-3----1----3----0----3--0--| 
-3---------3---------3--0--| 


Tab Key 
p = pull off 
b = bend 
/ = slide up 
\ = slide down 
ph^ = pinch harmonic
Comments