Creed - Say I Chords & Tabs

 

Say I Chords & Tabs

Creed Chords & Tabs

Version: 4 Type: Tab 0 ratings
1 star 2 stars 3 stars 4 stars 5 stars
comments

Say I Tab

   
Creed- Say I
\FernanDo DelGado/

Intro/Chorus:
E|--------------------------------------------------------------|
B|--------------------------------------------------------------|
G|-5-5-----5-----3------3-------3--------------------5-7-7br-5--|
D|-3-3--0--5--0--1---0--1--0-0--3---0-0-0-0-7v--0-0--5-7-7br-5--| x2
A|-3-3--0--3--0--1---0--1--0-0--1---0-0-0-0-7v--0-0-------------|
D|-3-3--0-----0--1---0-----0-0------0-0-0-0-----0-0-------------|
                           pm.	        ...       .


E|--------------------------------------------------------------------------|
B|------------------------------------------------------------------10v-10v-|
G|-5-5-5----5-----3---3--3---3--3--3-------------------10-12br-10---10v-10v-|
D|-3-3-3-0--5--0--1---1--1---1--1--3---0-0-0-0---10-12-10-12br-10-12--------|
A|-3-3-3-0--3--0--1---1--1---1--1--1---0-0-0-0---10-12------------12--------|
D|-3-3-3-0-----0--1---1------1--1------0-0-0-0------------------------------|
 pm.......     ........	     ....	   ...

E|------------------------------------|
B|------------------------------------|
G|-5-5-5----5-----3---3--3---3--3--3--|
D|-3-3-3-0--5--0--1---1--1---1--1--3--|
A|-3-3-3-0--3--0--1---1--1---1--1--1--|
D|-3-3-3-0-----0--1---1------1--1-----|
 pm.......     ........	     ....


Verse:
These hammer ons could be slides, I'm not sure

E|---5---------------------------------|
B|-----3----------3--------------8--7--|
G|------------2h3----3p0--2-----8--7---|
D|---------0-------------------0--0----|
A|-------------------------------------|
D|-0-------------------------0---------|
[ Tab from: http://www.guitartabs.cc/tabs/c/creed/say_i_tab_ver_4.html ]
Prechorus:
E|--------------------------------------------------------------|
B|-----10--10---10---10---10--------10---10---10---10---10------|
G|----8---8----8----8----8----8/7--7----7----7----7----7---7/8--| x3
D|---0---0----0----0----0---------0----0----0----0----0---------|
A|--------------------------------------------------------------|
D|--------------------------------------------------------------|

E|---------------------------|
B|-----10--10-10-11-11-10-10-|
G|----8---8---8--8--8--8--8--|
D|---0---0----0--0--0--0--0--|
A|---------------------------|
D|---------------------------|

Chorus, then verse, then chorus, then:

Bridge:
E|---------------------------------|
B|--------------------------3------|
G|--------------------------2------| x2
D|-0--0--0---0----0--0---0--0---0--|
A|-0--0--0---0----0--0---0--0---0--|
D|-0--0--0---0----0--0---0--0---0--|
pm....................		.

Solo(use delay, Bridge riff played under this):
E|-------------------------------------------------|
B|-10v~~~~~~~~~~~~----------11---------10v~~~~~~~~-|
G|-----------------12-11-12---12-12-12-------------|
D|-------------------------------------------------|
A|-------------------------------------------------|
D|-------------------------------------------------|

turn your delay off
E|-10v-|
B|-10v-|
G|-----|
D|-----|
A|-----|
D|-----|

Bridge 2:(Frantic focus...)
E|---------------------------------|
B|---------------------------------|
G|---------------------------------| x2
D|-0--0--0---0----0--0--0----0--0--|
A|-0--0--0---0----0--0--0----0--0--|
D|-0--0--0---0----0--0--0----0--0--|
pm.............................  .

E|---------------------------|
B|---------------------------|
G|---------------------------|
D|-0--0--0---0----1--1--1----|
A|-0--0--0---0----1--1--1----|
D|-0--0--0---0----1--1--1----|
pm............................

E|----------------|
B|----------------|
G|----------------| x5
D|-0--0--0---0----|
A|-0--0--0---0----|
D|-0--0--0---0----|
pm.............

The Pride Of Creed is growing
Comments