Creed - Say I Chords & Tabs

 

Say I Chords & Tabs

Creed Chords & Tabs

Version: 3 Type: Tab 0 ratings
1 star 2 stars 3 stars 4 stars 5 stars
comments

Say I Tab

   
Person: Joshua Page

song: Say I

artist: Creed

tab: Artist: Creed
Album:  Human Clay
Title:  Say I
Tabbed by Joshua Page (JPage92355@aol.com) 09/28/99	
Drop-D Tuning

Intro: (Distortion)
E-|-----------------------------------------------------------|
B-|--------------------------------------3--3-----3--3/4\3-0--|
G-|----------5--------3------3-----------2--2-----2--2/3\2-0--|
D-|--3-3-3-3-5--0-1-1-3--1-1-3-0--0-0--0----0--0--------------|
A-|--3-3-3-3-3--0-1-1-1--1-1-1-0--0-0--0----0--0--------------|
D-|--3-3-3-3----0-1-1----1-1---0--0-0--0----0--0--------------|

E-|-----------------------------------------------------------|
B-|--------------------------------------3--3-----3--3/4\3-0--|
G-|----------5--------3------3-----------2--2-----2--2/3\2-0--|
D-|--3-3-3-3-5--0-1-1-3--1-1-3-0--0-0--0----0--0--------------|
A-|--3-3-3-3-3--0-1-1-1--1-1-1-0--0-0--0----0--0--------------|
D-|--3-3-3-3----0-1-1----1-1---0--0-0--0----0--0--------------|

E-|---------------------------------------------------------------|
B-|---------------------------------------------------------------|
G-|----------5--------3------3----10-----10-12-12h13p12----10-10--|
D-|--3-3-3-3-5--0-1-1-3--1-1-3-0--10--12-10-12-12h13p12-12-10-10--|
A-|--3-3-3-3-3--0-1-1-1--1-1-1-0------12----------------12--------|
D-|--3-3-3-3----0-1-1----1-1---0----------------------------------|

E-|-------------------------------|
B-|-------------------------------|
G-|----------5--------3------3----|
D-|--3-3-3-3-5--0-1-1-3--1-1-3-0--|
A-|--3-3-3-3-3--0-1-1-1--1-1-1-0--|
D-|--3-3-3-3----0-1-1----1-1---0--|
End of Intro

Interlude: (Clean)
E-|--------------------------------|
B-|--------------------------------|
G-|--2-3-2p0---2-3-2p0-------------|
D-|----------3---------2--2-3-2-0--|
A-|--------------------------------|
D-|--------------------------------|
End of Interlude

Verse:Play 6 times (Clean) with phaser
E-|-----5----------------------------------------|
B-|---------3---------3----------------8------7--|
G-|------------0-2/3-----3p0-2-------8------7----|
D-|--------------------------------0------0------|
A-|----------------------------------------------|
D-|--0--------------------------0----------------|
End of Verse

Pre-Chorus:Play one time through (Clean)
Play 4 times
E-|------------------------------|
B-|------10---10---10---10---10--|
G-|----8----8----8----8----8-----|
D-|--0---------------------------|
A-|------------------------------|
D-|------------------------------|

Play this 4 times:
E-|------------------------------|
B-|------10---10---11---10---11--|
G-|----8----8----8----8----8-----|
D-|--0---------------------------|
A-|------------------------------|
D-|------------------------------|
End of Pre-Chorus

Chorus: (Distortion)
E-|-----------------------------------------------------------|
B-|--------------------------------------3--3-----3--3/4\3-0--|
G-|----------5--------3------3-----------2--2-----2--2/3\2-0--|
D-|--3-3-3-3-5--0-1-1-3--1-1-3-0--0-0--0----0--0--------------|
A-|--3-3-3-3-3--0-1-1-1--1-1-1-0--0-0--0----0--0--------------|
D-|--3-3-3-3----0-1-1----1-1---0--0-0--0----0--0--------------|

E-|-----------------------------------------------------------|
B-|--------------------------------------3--3-----3--3/4\3-0--|
G-|----------5--------3------3-----------2--2-----2--2/3\2-0--|
D-|--3-3-3-3-5--0-1-1-3--1-1-3-0--0-0--0----0--0--------------|
A-|--3-3-3-3-3--0-1-1-1--1-1-1-0--0-0--0----0--0--------------|
D-|--3-3-3-3----0-1-1----1-1---0--0-0--0----0--0--------------|

E-|---------------------------------------------------------------|
B-|---------------------------------------------------------------|
G-|----------5--------3------3----10-----10-12-12h13p12----10-10--|
D-|--3-3-3-3-5--0-1-1-3--1-1-3-0--10--12-10-12-12h13p12-12-10-10--|
A-|--3-3-3-3-3--0-1-1-1--1-1-1-0------12----------------12--------|
D-|--3-3-3-3----0-1-1----1-1---0----------------------------------|

E-|-------------------------------|
B-|-------------------------------|
G-|----------5--------3------3----|
D-|--3-3-3-3-5--0-1-1-3--1-1-3-0--|
A-|--3-3-3-3-3--0-1-1-1--1-1-1-0--|
D-|--3-3-3-3----0-1-1----1-1---0--|
End of Intro
[ Tab from: http://www.guitartabs.cc/tabs/c/creed/say_i_tab_ver_3.html ]
Interlude: (Clean)
E-|--------------------------------|
B-|--------------------------------|
G-|--2-3-2p0---2-3-2p0-------------|
D-|----------3---------2--2-3-2-0--|
A-|--------------------------------|
D-|--------------------------------|
End of Interlude

Verse:Play 6 times (Clean) with phaser
E-|-----5----------------------------------------|
B-|---------3---------3----------------8------7--|
G-|------------0-2/3-----3p0-2-------8------7----|
D-|--------------------------------0------0------|
A-|----------------------------------------------|
D-|--0--------------------------0----------------|
End of Verse

Pre-Chorus:Play one time through (Clean)
Play 4 times
E-|------------------------------|
B-|------10---10---10---10---10--|
G-|----8----8----8----8----8-----|
D-|--0---------------------------|
A-|------------------------------|
D-|------------------------------|

Play this 4 times:
E-|------------------------------|
B-|------10---10---11---10---11--|
G-|----8----8----8----8----8-----|
D-|--0---------------------------|
A-|------------------------------|
D-|------------------------------|
End of Pre-Chorus

Repeat Chorus and then play this

1st Bridge:(Distortion)
E-|-------------------------------------------------------------|
B-|-------------------------------------------------------------|
G-|-------------------------------------------------------------|
D-|--0-0-0--0--0-0-0--0/1-0--0-0-0--0--0-0-0--0/1--0--0-0-0--0--|
A-|--0-0-0--0--0-0-0--0/1-0--0-0-0--0--0-0-0--0/1--0--0-0-0--0--|
D-|--0-0-0--0--0-0-0--0/1-0--0-0-0--0--0-0-0--0/1--0--0-0-0--0--|
    p.m.__________|      |_______________|  |____________|

E-|------------------------------------------------------------|
B-|---------3-4--------------------3-4--------------------3-4--|
G-|---------2-3--------------------2-3--------------------2-3--|
D-|--0-0-0--0-1---0-0-0--0--0-0-0--0-1---0-0-0--0--0-0-0--0-1--|
A-|--0-0-0--0-1---0-0-0--0--0-0-0--0-1---0-0-0--0--0-0-0--0-1--|
D-|--0-0-0--0-1---0-0-0--0--0-0-0--0-1---0-0-0--0--0-0-0--0-1--|
    p.m.__|      |_______________|      |_______________|

E-|-----------------------------------------------------------------|
B-|-----------------------------------------------------------------|
G-|-----------------------------------------------------------------|
D-|--0-0-0--0--0-0-0--0000--0-0-0--0--0-0-0--0--0-0-0--0--0-0-0--0--|
A-|--0-0-0--0--0-0-0--0000--0-0-0--0--0-0-0--0--0-0-0--0--0-0-0--0--|
D-|--0-0-0--0--0-0-0--0000--0-0-0--0--0-0-0--0--0-0-0--0--0-0-0--0--|
    p.m.________________________________________________|
End of 1st Bridge

2nd Bridge:Play 4 times (Clean)sounds good with Phaser
E-|--5-5-5---------------|
B-|----------------------|
G-|---------0-2-3-3-3-0--|
D-|----------------------|
A-|----------------------|
D-|----------------------|
End of 2nd Bridge

3rd Bridge:Play 3 times (Clean)
E-|-----------|
B-|--------3--|
G-|--5--3--2--| Strum Chords
D-|--3--1--0--| 
A-|--3--1--0--| 
D-|--3--1--0--|
End of 3rd Bridge

End with: (Distortion)
E-|----------------------------------------------|
B-|-----------------------3/4\3---------3/4\3-0--|
G-|--5-5-5--3-3--3-3------2/3\2---------2/3\2-0--|
D-|--3-3-3--1-1--1-1--0-0-------0-0-0-0----------|
A-|--3-3-3--1-1--1-1--0-0-------0-0-0-0----------|
D-|--3-3-3--1-1--1-1--0-0-------0-0-0-0----------|

E-|----------------------------------------------|
B-|-----------------------3/4\3---------3/4\3-0--|
G-|--5-5-5--3-3--3-3------2/3\2---------2/3\2-0--|
D-|--3-3-3--1-1--1-1--0-0-------0-0-0-0----------|
A-|--3-3-3--1-1--1-1--0-0-------0-0-0-0----------|
D-|--3-3-3--1-1--1-1--0-0-------0-0-0-0----------|

E-|---------------------------------------------------------------|
B-|---------------------------------------------------------------|
G-|----------5--------3------3----10-----10-12-12h13p12----10-10--|
D-|--3-3-3-3-5--0-1-1-3--1-1-3-0--10--12-10-12-12h13p12-12-10-10--|
A-|--3-3-3-3-3--0-1-1-1--1-1-1-0------12----------------12--------|
D-|--3-3-3-3----0-1-1----1-1---0----------------------------------|

E-|--------------------------------------|
B-|--------------------------------------|
G-|----------5--------3------3-----------|
D-|--3-3-3-3-5--0-1-1-3--1-1-3-0-0-0--0--|
A-|--3-3-3-3-3--0-1-1-1--1-1-1-0-0-0--0--|
D-|--3-3-3-3----0-1-1----1-1---0-0-0--0--|

SUBMIT: Send

Comments