Creed - Say I Chords & Tabs

 

Say I Chords & Tabs

Creed Chords & Tabs

Version: 2 Type: Tab 0 ratings
1 star 2 stars 3 stars 4 stars 5 stars
comments

Say I Tab

   
Creed
Song - Say I
From - Human Clay

Drop d tuning

h - hammer on
p - pull off
b - bend string up
~ - vibrato
x - muted, struck string


Intro/chorus
X2
E--------------------------------------------------|
B--------------------------------------------------|
G--------5-------3-----3---------2---0---2-2h3p2p0-|
D--------5-------3-----3---------0---0---0-0-0-0-0-|
A-3-3----3---1---1-----1-----------0---0-----------|
E-3-3--0---0-1-0---0-0---0-0-0-0-------------------|

E--------------------------1---1h3-3h4p3p1-1^-1^---
B--------------------------1h3-1---1-------1^-1^---
G---------5-------3-----3--------------------------
D---------5-------3-----3--------------------------
A-3-3-3---3---1-1-1-1-1-1--------------------------
E-3-3-3-0---0-1-1---1-1--0-------------------------

E--------------------------------------------------|
B--------------------------------------------------|
G---------5-------3-----3---2h3p2--2h3p2-----------|
D---------5-------3-----3--------3------3-2-2h3p2-0|
A-3-3-3---3---1-1-1-1-1-1--------------------------|
E-3-3-3-0---0-1-1---1-1--0-------------------------|

Verse,

X6
E-----7------------------------------3-----2-------|
B--------5--------3----------------3-----3---------|
G-----------0-0h3---3p0-2--------3-----2-----------|
D--------------------------------------------------|
A--------------------------------------------------|
E-0-----------------------0------------------------|

X4
E-----5---5---5---5---5--|
B---3---3---3---3---3--3-|
G-3----------------------|
D------------------------|
A------------------------|
E------------------------|


X2
E-----5---5---6---5---6--|
B---3---3---3---3---3--3-|
G-3----------------------|
D------------------------|
A------------------------|
E------------------------|

X2
E-5-5-5-5-5-5-6-6-5-5-6-5|
A-3-3-3-3-3-3-3-3-3-3-3-3|
G-3-3-3-3-3-3-3-3-3-3-3-3|
D------------------------|
A------------------------|
E------------------------|

To Chorus,
Say I...
Say I...
Say I...
Say I...

Verse 2,

(to chorus)

Bridge,
X2
E--------------------------------------------------|
B--------------------------------------------------|
G--------------------------------------3-3---------|
D--------------------------------------3-3---------|
A-0---0---0----0----------0---0---1----1-1---------|
E-0---0---0----0----------0---0---1----------------|

X3
E--------------------------------------------------|
B--------------------------------------------------|
G----------------------------------------3---------|
D----------------------------------------3---------|
A-0---0---0----0----------0---0---0----0-1---------|
E-0---0---0----0----------0---0---0----0-1---------|
[ Tab from: http://www.guitartabs.cc/tabs/c/creed/say_i_tab_ver_2.html ]
E--------------------------------------------------
B--------------------------------------------------
G--------------------------------------------------
D--------------------------------------------------
A-0---0---0----0----------0---0---0----0-0-0-------
E-0---0---0----0----------0---0---0----0-0-0-------

E--------------------------------------------------
B--------------------------------------------------
G--------------------------------------------------
D--------------------------------------------------
A-0---0---0----0----------0---0---0-----0----------
E-0---0---0----0----------0---0---0-----0----------

E--------------------------------------------------|
B--------------------------------------------------|
G-------------------------3------------------------|
D-------------------------3------------------------|
A-0---0---0----0----------1-------0----------------|
E-0---0---0----0----------1-------0----------------|
Outro,
X3                        X1
E-5-5-5------------------|-5-5-5-------------------|
B------------------------|-------------------------|
G-------0-2-3-3-3-0------|-------0-2-3-------------|
D------------------------|-------------------------|
A------------------------|-------------------------|
E------------------------|-------------------------|

X3

E--------------------------------------------------|
B-3--3-3-3-1--1-1-1-1--1----3--3-3-3-3-------------|
G-5--5-5-5-3--3-3-3-3--3----2--2-2-2-2-------------|
D-5--5-5-5-3--3-3-3-3--3-0--0--0-0-0-0-------------|
A-3--3-3-3-1--1-1-1-1--1-0--0--0-0-0-0-------------|
E------------------------0--0--0-0-0-0-------------|


E--------------------------------------------------
B--------------------------------------------------
G-5--5-5-5-3--3-3-3-3--3-----1~---------1~---------
D-5--5-5-5-3--3-3-3-3--3-----0----------0----------
A-3--3-3-3-1--1-1-1-1--1-0-0----0-0-0-0----0-0-----
E------------------------0-0----0-0-0-0----0-0-----


E--------------------------------------------------
B--------------------------------------------------
G-5--------3-----------3-----1~---------1~---------
D-5--------3-----------3-----0----------0----------
A-3--------1-----------1-0-0----0-0-0-0------------
E------------------------0-0----0-0-0-0------------


E--------------------------1---1h3-3h4p3p1-1^-1^---
B--------------------------1h3-1---1-------1^-1^---
G---------5-------3-----3--------------------------
D---------5-------3-----3--------------------------
A-3-3-3---3---1-1-1-1-1-1--------------------------
E-3-3-3-0---0-1-1---1-1--0-------------------------


E--------------------------------|
B--------------------------------|
G---------5-------3-----3--------|
D---------5-------3-----3--------|
A-3-3-3---3---1-1-1-1-1-1-0-0-0--|
E-3-3-3-0---0-1-1---1-1---0-0-0--|

Thats Prety much it. I'm prety sure that there will be a few corrections
To be made. So Enjoy..

BlueInferno_9890@hotmail.com
Comments