Creed - Pity For A Dime Chords & Tabs

 

Pity For A Dime Chords & Tabs

Creed Chords & Tabs

Version: 1 Type: Tab 0 ratings
1 star 2 stars 3 stars 4 stars 5 stars
comments

Pity For A Dime Tab

Author/Artist: Creed
Title: Pity For A Dime
Album: My Own Prison

Intro - 
-------0------4---------------------------------------------5----------------|
-0-----0------4---4------------------------5p4--------------5----------------|
-9--9--9---0--4---4---------------------6-------6-------6---6----------------|
-9--9------0--4---x----4-------------6-------------6h7--7--------------------|
-7--7---------4---7----6---6h7p6--4---------------------7--------------9--7--|
-0--0---------------------------------------------------5------0--5/7--------|
                                                                              

Verse - 
-0--0-----------------------------------------------------5-----------------|
-0--0-------4---4------------------------5p4--------------5-----------------|
-9--9---0---4---4----4----------------6-------6-------6---6-----------------|
-9--9---0---4---4----4-------------6-------------6h7--7---------------------|
-7------0---4---7----6---6h7p6--4---------------------7---------------9--7--|
------------------------------------------------------5-------0--5/7--------|
                                                                              

Interlude I - 
-------------------0-------------4---4---4------------------7----------|
-0--------------------0----------4---4---4--------7----7----7----------|
-9---9/---6--------------6-------5---5---5----8---8----8----8----------|
-9---9/------6--------------6----6---6---6----9---9----9----9---9---9--|
-7---7/---------4----------------6---6---6----9---9----9--------7---7--|
-0-------------------------------4---4---4----7---7----7--------0---0--|
                                                                        
-------------------0-------------4---4---4----5---5----5----5----------|
-0--------------------0----------4---4---4----5---5----5----5----------|
-9---9/---6--------------6-------5---5---5----6---6----6----6----------|
-9---9/------6--------------6----6---6---6----7---7----7----7---9---9--|
-7---7/---------4----------------6---6---6----7---7----7----7---7---7--|
-0-------------------------------4---4---4----5---5----5----5---0---0--|
                                                                              

Chorus – (“So I sat down for a while . . .”)
-0----------3----------2----------2---------0--|
-0----------3----------2----------2---------0--|
-9----------4----------4----------2---------3--|
-9----------5----------4----------4---------4--|
-7----------5----------2----------4---------4--|
-0----------3---------------------2---------2--|
                                                                              

Interlude II - 
------0-------0---3p0------0---0---0----0----0-|-----------------------------|
------0---x---0---0----x---3---0---0----0----0-|-----------------------------|
-1----1---x---1---1----x---1---1---1----1----1-|-----------------------------|
-2----2---x-------2----x---2---2---2----2----2-|-----------------------------|
-2----2---x------------x----------------2----2-|--2--2-----2--2-----2--2-----|
-0----0---------------------------------0----0-|--0--0--3--0--0--3--0--0--3--|
                                                                              
With distortion - 
-----------------------------|
-----------------------------|
-----------------------------|
-----------------------------|
-2--2-----2--2-----2--2------|
-0--0--3--0--0--3--0--0--3b--|
  
(“Plain____________________________________________________________. . . “)                                       
------------------------------------------------------------------------------
-----8-----------8--8--8--8-------8-----------7--7--7--7--7-----7---7--7--7---
-----x-----------x--x--x--x-------x-----------7--7--7--7--7-----7---7--7------
-----6-----------6--6--6--6-------6-----------6--6--6--6--6-----6---6--6--6---
------------------------------------------------------------------------------
-0-------0---0----------------0-------0--0-------------------0----------------                                                  

                 (“Talk can be the easy way . . .”)  
----------------|---------------------------------------------|
-7--7--7--7--0--|---------------------------------------------|
-7--7--7--7--0--|------------------4--4-----------------------|
-6--6--6--6--0--|--5--5------------4--4-----------------------|
----------------|--3--3---5--5-----2--2----4--4--4--4---4-----|
----------------|---------3--3-------------2--2--2--2---2--3--|

(“Signs___________________________________________ . . . . . . “)                                     
------------------------------------------------------------------------------
---------8-----8--8--8--8--8-----8--------------------------------------------
-----0---x-----x--7--7--7--7-----7--------------------------------------------
-----0---6-----6--6--6--6--6-----6-------------------------------7--6--5------
-2----------------------------------------5h7---------2---2--2------------7---
-0----------0-----------------0-----0--0-------0--0---0---0--0----------------
                                                                              
             (“Losing my faith, losing my faith . . .”)
-------------|----------------------------------------------------|
-------------|----------------------------------------------------|
-------------|----------------------------------------------------|
-------------|-5--5--5-----------4--4--4--------------------------|
-6--5--------|-3--3--3--5---5----2--2--2---4------4-----4---5--2--|
-------7--5--|----------3---3--------------2---0--2--0--2---3--0--|
                                                                              
[ Tab from: http://www.guitartabs.cc/tabs/c/creed/pity_for_a_dime_tab.html ]
Chorus – (“So I sat down for a while . . . .”)
----------------------------------------------0~--------0~-------|
-------------------------------------------------0~--------0~----|
-------------------------4-------4-------3----------3~--------3~-|
-9-------9---------------5-------4-------4-----------------------|
-7-------7-------5-------5-------2-------4-----------------------|
---------0-------3-------3---------------2-----------------------|
                                                                              
Solo –
Guitar I – (Play under guitar solo)
--------------------------------------------|
--------------------------------------------|
-9---------------5-------4-------4-------3--|
-9---------------5-------5-------4-------4--|
-7-------0-------3-------5-------2-------4--|
-0-------0---------------3---------------2--|
                                                                              
Guitar II -                               
|Full Bends|                                     |Full Bend|
------------------------------------------------------------------15------14--
----------------------------------------------------------------------15------
-2b---2br-----0-------------12---------------------0-2br-0--------------------
-----------2--------12--14------14--14ph------0-2-----------2-----------------
--------------------12--------------------0h2------------------0--------------
------------------------------------------------------------------------------
                                                                              
------------------------------------------------------------------------------
-14----15-------15-------------------------------13--13--12--12-----0--15-----
-------14b--------------------------5--5--4---4------------------0-----14b----
------------------------------------------------------------------------------
---------------------------3--2--2--------------------------------------------
------------------------------------------------------------------------------
                                                                              
------------------------------------------------------------------------------
-15-------------------------------------------------------------/12--12-------
-14b--14br---12------12--12-----------------------------12--------------------
-----------------14---------14---------12-------------------14----------------
---------------------------------12-14----14--14-12-14------------------------
------------------------------------------------------------------------------
                                                                              
----------------------------------------------------------|
-12h13p12------12-----------------------------------------|
-----------14------14--12--11h12p11-----------------------|
-------------------------------------14-------14--13------|
-----------------------------------------------------14/--|
------------------------------------------14--------------|
                                                                              
(Slight palm mute on this part)
------------------------------------------------------------------------------
------------------------------------------------------------------------------
------------------------------------------------------------------------------
-------------------13-14-16-14-13---------------------------------13-14-16----
----------12-14-15----------------15-14-12---------------12-14-15-------------
-12-14-15----------------------------------15-12---14-15----------------------
                                                                              
------------------------------------------------------------------------------|
------------------------------------------------------------------------------|
------------------------------------------------------------------------------|
-14-13------------------------------------13-13-16-13-14----13----------------|
-------15-14-12------------------12-14-15----------------15----14-15-12-14----|
----------------15-14---12-14-15----------------------------------------------|
                                                                              




-12--12---15-12-14-15-14-12-17-12-14-15-14-12-15-12-14-15-14-12-17-12-14-15---
------------------------------------------------------------------------------
------------------------------------------------------------------------------
------------------------------------------------------------------------------
------------------------------------------------------------------------------
------------------------------------------------------------------------------
                                                                              
-14-12-12-12-15-12-14-15-15-12-14-15-17-14-15--18b*--|
-----------------------------------------------------|
-----------------------------------------------------|
-----------------------------------------------------|*full bend
-----------------------------------------------------|
-----------------------------------------------------|
                                                                              

Outro - 
------------------------------------------------------------------------------
------------------------------------------------------------------------------
----------------------------0-----------0-------------------------------------
-5--5--5-----0--4--4--4-----0-----------0--5--5--5---------4--4--4------------
-3--3--3--5--0--2--2--2--4-----4--0--0-----3--3--3--5---5--2--2--2--4-0--4----
----------3--------------2-----2--0--0--------------3---3-----------2-0--2-0--
                                                                              

Last Strum - 
---------|
----8~---|
----x----|Let Ring . . . .
----6~---|
----7~---|
----0~---|
                                                                              

Comments