Creed - One Chords & Tabs

 

One Chords & Tabs

Creed Chords & Tabs

Version: 6 Type: Tab 0 ratings
1 star 2 stars 3 stars 4 stars 5 stars
comments

One Tab

CREED
"ONE"                                      


Ok, this is as close as i'm going to get tabbing out the intro for you.
tremonti likes to switch up the 11,9,11 thing over and over. so instead
of tabbing all that out I'll just give you this...(99% still)
                                          
INTRO.
(1x)                                   
|---------------------------------------------------------------|
|---------------------------------------------------------------|
|---------------------------------------------------------------|
|-----------------11-11-11-11/-9-\11-14---9-9-9-9-9--4-4-4-4-4--|
|--7-7-7/6-6-6\7---0--0--0--0--0--0--0----7-7-7-7-7--2-2-2-2-2--|
|--9-9-9-9-9-9-9------------------------------------------------|
                                           


(5x)
|-------------------------------------------------------------------|
|-------------------------------------------------------------------|
|-------------------------------------------------------------------|
|-----------------11-11-11-11-9-11--9-9h11p9--9-9-9-9-9--4-4-4-4-4--|
|--7-7-7/6-6-6\7---0--0--0--0-0--0--0-0--0-0--7-7-7-7-7--2-2-2-2-2--|
|--9-9-9-9-9-9-9----------------------------------------------------|

(1x)      ...then like this again.                           
|---------------------------------------------------------------|
|---------------------------------------------------------------|
|---------------------------------------------------------------|
|-----------------11-11-11-11/-9-\11-14---9-9-9-9-9--4-4-4-4-4--|
|--7-7-7/6-6-6\7---0--0--0--0--0--0--0----7-7-7-7-7--2-2-2-2-2--|
|--9-9-9-9-9-9-9------------------------------------------------|

(1x)      ...then this last one.
|-------------------------------------------------------------------|
|-------------------------------------------------------------------|
|-------------------------------------------------------------------|
|-----------------11-11-11-11-9-11--9-9h11p9--9-9-9-9-9--4-4-4-4-4--|
|--7-7-7/6-6-6\7---0--0--0--0-0--0--0-0--0-0--7-7-7-7-7--2-2-2-2-2--|
|--9-9-9-9-9-9-9----------------------------------------------------|


CHORUS 
(2x)
(not exact strumming) duh!       
|------------------------------|
|------------------------------|
|--4-4-4---------6-6-6---------|
|--4-4-4--4-4-4--6-6-6--6-6-6--|
|--2-2-2--4-4-4--4-4-4--6-6-6--|
|---------2-2-2---------4-4-4--|


ok...here we go again. 
(1x)
|---------------------------------------------------------------|
|---------------------------------------------------------------|
|---------------------------------------------------------------|
|-----------------11-11-11-11/-9-\11-14---9-9-9-9-9--4-4-4-4-4--|
|--7-7-7/6-6-6\7---0--0--0--0--0--0--0----7-7-7-7-7--2-2-2-2-2--|
|--9-9-9-9-9-9-9------------------------------------------------|

(1x)
|-------------------------------------------------------------------|
|-------------------------------------------------------------------|
|-------------------------------------------------------------------|
|-----------------11-11-11-11-9-11--9-9h11p9--9-9-9-9-9--4-4-4-4-4--|
|--7-7-7/6-6-6\7---0--0--0--0-0--0--0-0--0-0--7-7-7-7-7--2-2-2-2-2--|
|--9-9-9-9-9-9-9----------------------------------------------------|
[ Tab from: http://www.guitartabs.cc/tabs/c/creed/one_tab_ver_6.html ]
(1x)
|---------------------------------------------------------------|
|---------------------------------------------------------------|
|---------------------------------------------------------------|
|-----------------11-11-11-11/-9-\11-14---9-9-9-9-9--4-4-4-4-4--|
|--7-7-7/6-6-6\7---0--0--0--0--0--0--0----7-7-7-7-7--2-2-2-2-2--|
|--9-9-9-9-9-9-9------------------------------------------------|

(2x)
|-------------------------------------------------------------------|
|-------------------------------------------------------------------|
|-------------------------------------------------------------------|
|-----------------11-11-11-11-9-11--9-9h11p9--9-9-9-9-9--4-4-4-4-4--|
|--7-7-7/6-6-6\7---0--0--0--0-0--0--0-0--0-0--7-7-7-7-7--2-2-2-2-2--|
|--9-9-9-9-9-9-9----------------------------------------------------|

(1x)
|---------------------------------------------------------------|
|---------------------------------------------------------------|
|---------------------------------------------------------------|
|-----------------11-11-11-11/-9-\11-14---9-9-9-9-9--4-4-4-4-4--|
|--7-7-7/6-6-6\7---0--0--0--0--0--0--0----7-7-7-7-7--2-2-2-2-2--|
|--9-9-9-9-9-9-9------------------------------------------------|

(1x)
|-------------------------------------------------------------------|
|-------------------------------------------------------------------|
|-------------------------------------------------------------------|
|-----------------11-11-11-11-9-11--9-9h11p9--9-9-9-9-9--4-4-4-4-4--|
|--7-7-7/6-6-6\7---0--0--0--0-0--0--0-0--0-0--7-7-7-7-7--2-2-2-2-2--|
|--9-9-9-9-9-9-9----------------------------------------------------|

CHORUS
(4x)
|------------------------------|
|------------------------------|
|--4-4-4---------6-6-6---------|
|--4-4-4--4-4-4--6-6-6--6-6-6--|
|--2-2-2--4-4-4--4-4-4--6-6-6--|
|---------2-2-2---------4-4-4--|

                  
                 
INTERLUDE                 
|-------------0------------------------|
|--------2------0----------4-----------|(I don't really know what but
|------4----------3------6--------6-5--| he uses some kool effect here.
|----4------4----------6---------------|phaser? So it won't sound that
|--2--------4--------4----------6------|great w/o it.)
|-----------2-----------------4--------|

(2x)
|----------------------------------------------|
|---------4---------4---------4-----7-7-7-7-7--|
|-----------4---------4---------4---9-9-9-9-9--|
|-----------------------------------9-9-9-9-9--|
|---2-2-2-----2-2-2-----2-2-2-------7-7-7-7-7--|
|-----------------------------------x-x-x-x-x--|

(2x)
|------------------------------|
|------------------------------|
|--4-4-4---------6-6-6---------|
|--4-4-4--4-4-4--6-6-6--6-6-6--|
|--2-2-2--4-4-4--4-4-4--6-6-6--|
|---------2-2-2---------4-4-4--|

OUTRO  about (7x)...slowly fades out.
|---------------------------------------------------------------------|
|---------------------------------------------------------------------|
|-4~--------------------------------6~--------------------------------|
|-4~--------------------------------6~--------------------------------|
|-2~------4-4-4-------4-4-4-----4---4~-------6-6-6-------6-6-6-----6--|
|---2-2-2-------2-2-2-------2-2---2----4-4-4-------4-4-4-------4-4---4|
Comments