Creed - One Chords & Tabs

 

One Chords & Tabs

Creed Chords & Tabs

Version: 2 Type: Tab 0 ratings
1 star 2 stars 3 stars 4 stars 5 stars
comments

One Tab

Song: One                                                  Key
Artist: Creed
Album: My Own Prison                                       Slide Up: /
Tuning: EADGBE                                             Slide Down:\
Tabbed By: Ryan Vernon                                     Mute: x
Email: ohio_guitar_player15@yahoo.com                      Hammer On: h
                                                           Pull Off: p

The Bridge is played with a fast phaser. The Outro is
played with another guitar doing a misc. tremolo and a
heavy delay. The last two choruses and outro sound really
good with a wah pedal If you have any questions or comments, 
email me.
________________________________________________________________________________

Intro: Clean  2x

|--------------------------------------------------------------------|
|--------------------------------------------------------------------|
|--------------------------------------------------------------------|
|----------------------------------------------11----11--11--11--9---|
|---7----7----7----6----6----6----6h7p7--0--0---0-----0---0---0--0---|
|---9----9----9----9----9----9-----------0---------------------------|

|-----------------------------------------------------------------|
|-----------------------------------------------------------------|
|-----------------------------------------------------------------|
|---11—(11)/14\--9----9--9--9--9--------9--9--9--9----4--4----4---|
|----0---0---0---7----7--7--7--7--------7--7--7--7----0--0----2---|
|-----------------------------------------------------------------|

|-----------------------------------------|
|-----------------------------------------|
|-----------------------------------------|
|---4--4--4--4--------4--4--4--4----------|
|---2--2--2--2--------2--2--2--2--/7--7---|
|-----------------------------------------|

Verse: Clean
For the verse, repeat the intro 4x.

Pre-Chorus: Clean
For the pre-chorus, repeat the intro 2x and end with this.

|---------------------|
|---------------------|
|---------------------|
|---------------------|
|---2-2-2-2-2-2-0-0---|
|---2-2-2-2-2-2-0-0---|
    ^Place finger directly on the 2nd fret
Chorus: Distortion  2x

|----------------------------------------------------------------------|
|----------------------------------------------------------------------|
|----------------------------------------------------------------------|
|---4----4--4--4--4----4----4------------------------------------------|
|---2----2-—2—-2--2----2----2--0--0--4----4--4--4--4----4----4---------|
|------------------------------0--0--2----2--2--2--2----2----2--0--0---|

|------------------------------------------------------------------|
|------------------------------------------------------------------|
|------------------------------------------------------------------|
|---6------6--6--6--6------6--6--6--6----6--6----------------------|
|---4------4--4--4--4------4--4--4--4----4--4--6------6--6--6--6---|
|----------------------------------------------4------4--4--4--4---|

|------------------------|
|------------------------|
|------------------------|
|------------------------|
|---6--6--6--6--6----0---|
|---4--4--4--4--4----0---|

Interlude: Clean
For the interlude, repeat the intro 1x.

Repeat Verse: Clean
At the end of the verse there is the “We may rise and fall…” part which goes with this.
[ Tab from: http://www.guitartabs.cc/tabs/c/creed/one_tab_ver_2.html ]
|----------------------------------------------------------------------------|
|----------------------------------------------------------------------------|
|----------------------------------------------------------------------------|
|---6--6--6--6--6--6--6-----2--2--2--2--2--2--2-----9--9--9--9--9--9--9------|
|---4--4--4--4--4--4--4--0--0--0--0--0--0--0--0--0--7--7--7--7--7--7--7--0---|
|------------------------0-----------------------0--0--0--0--0--0--0--0--0---|

|---------------------------|
|---------------------------|
|---------------------------|
|---4--4--4--4----4--4------|
|---2--2--2--2----2--2--0---|
|---------------------------|

Repeat Pre-Chorus: Clean
Another guitar plays this with the first half of the pre-chorus.

|--------------------------------------------------------------------------|
|-----------------------------------------2--------------------------------|
|-----------------------2-2--2------------2--------------------------------|
|---6----------------6--2-2--2------------2-------9--9--9--9--9--9--9------|
|---4----------------4-------0------------0--0-0--7--7--7--7--7--7--7--9---|
|--------------------------------------------0-0-----------------------7---|

|-------------------------------------------|
|-------------------------------------------|
|--------------------0--0--0--0--0—-0-—0----|
|--------------------9--9--9--9--9--9—-9\---|
|---9----9--9--9--9--9--9--9--9--9--9—-9\---|
|---7----7--7--7--7--7--7--7--7--7--7—-7\---|
 
And at the end of the pre-chorus plays this.
|---------------9-----------|
|---------9-----------------|
|---9-x-9---9-9---7-7-7-7---|
|---------------------------|
|---------------------------|
|---------------------------|

Repeat Chorus: Distortion  2x

Bridge: Clean/Distortion

Repeat this part clean 2x.
|----------2~------------0----------------------4~-----------------------------|
|----------2~---------------0-------------------4~-----------------------------|
|--------4-----------------------3------------6-----------------6-------5------|
|------4----------------------------4-------6----------------4-----------------|
|---2------------------------------------4-----------------6---------------0---|
|----------------0--2---------------------------------0-4------------4---------|

Repeat this part with distortion 2x.
|-------------------0--------------------0----------------------------------|
|---------4-----------0--------4-----------0--------4---------4----5p4------|
|--------------4--------------------4--------------------4--------------4---|
|-------4----------------4-4-4----------------4-4-4-------------------------|
|---2-2---------------------------------------------------------------------|
|---------------------------------------------------------------------------|

|--------------------------|
|--------------------------|
|---9--9----9-9--9--9------|
|---9--9----9-9--9--9------|
|---7--7----7-7--7--7--0---|
|---0--0----0-0--0--0--0---|

Chorus: Distortion  2x

|----------------------------------------------------------------------|
|----------------------------------------------------------------------|
|----------------------------------------------------------------------|
|---4-4-4-4-4-4-4-4----4-4-4-4--4--------------------------------------|
|---2-2-2-2-2-2-2-2----2-2-2-2--2----------4----4-------4----4---4-----|
|------------------------------------2-2-2--------2-2-2--------2---2---|

|-------------------------------------------------------------------------|
|-------------------------------------------------------------------------|
|-------------------------------------------------------------------------|
|---6----6-6-6-6-6-6----6-6-6-6----6--------------------------------------|
|---4----4-4-4-4-4-4----4-4-4-4----4----------6----6-------6----6---6-----|
|---------------------------------------4-4-4--------4-4-4--------4---4---|

Repeat Last Chorus: Distortion

Outro: Distortion
For the outro, repeat the last chorus 4x and fade. 



Song Order

Intro: Clean
Verse: Clean
Pre-Chorus: Clean
Chorus: Distortion
Interlude: Clean
Verse: Clean
Pre-Chorus: Clean
Chorus: Distortion
Bridge: Clean/Distortion
Chorus: Distortion
Chorus: Distortion
Outro: Distortion
Comments