Creed - One Live Chords & Tabs

 

One Live Chords & Tabs

Creed Chords & Tabs

Version: 1 Type: Tab 0 ratings
1 star 2 stars 3 stars 4 stars 5 stars
comments

One Live Tab

This is how Creed played "One" live on late night with david letterman, and is
basicly the way they play it live in concert.  Listen for strumms.  I suggest
you download the song live on letterman for help on the strumming.

Intro/verse goes like this
----------------------------------
----------------------------------
----------------------------------
----------------------------------
7-7-7-6-6-6--6-7-0----------------
9-9-9-9-9-9-----------------------

-5---0---5---0---0------------------
-5---0---5---0---0------------------
-6---6---6---9---8------------------
-7---7---7---9---9------------------
-7---7---7---7---9------------------
-5---0---5---0---7------------------

Chorus goes like this

------------------------------------
------------------------------------
------------------------------------
-4-------6--------------------------
-2---4---4---6----------------------
-----2-------4----------------------

or play this with distortion

-------------------------------------
-------------------------------------
-8---3---10---5----------------------
-9---4---11---6----------------------
-9---4---11---6----------------------
-7---2----9---4----------------------

or play the chorus like this with a clean or acoustic tone (this is how to play
the chorus the acoustic way)
[ Tab from: http://www.guitartabs.cc/tabs/c/creed/one_live_tab.html ]
-0---0----0---0-----------------------
-0---0----0---0-----------------------
-8---3---10---5-----------------------
-9---4---11---6-----------------------
-9---4---11---6-----------------------
-7---2----9---4-----------------------


The bridge is played differently live than on their cd
----------2----------0------------------------4-----4-4------
----------2------------0----------------------4-----4-4------
------4----------------------3-------------6--------6-6------
----4---------------------------4--------6----------6-6------
-2------------------------------------4-------------4-4------
----------------0-2---------------------------------4-4------

The solo goes like this

                 start wah                   end wah 
-----------------*---------------------7--7--*-------------
-----------------*---------------------7--7--*-------------
-------8---------*---------8-----------8--8--*-------9-----
---------9-------*-----------9---------9--9--*-------9-----
-----9-----------*--9-9-9--------------9--9--*-------7-----
-7-7-------------*---------------------7--7--*-------------

play chorus again then play
--------------------------------------------
--------------------------------------------
--------------------------------------------
-4------------------------------------------
-2--------4---4-------4---4---4-------------
----2-2-2-------2-2-2-------2---2-----------
    _____       _____       _   _

--------------------------------------------
--------------------------------------------
--------------------------------------------
-6------------------------------------------
-4--------6---6-------6---6---6-------------
----4-4-4-------4-4-4-------4---4-----------
    _____       _____       _   _
Comments