Creed - One Last Breath Chords & Tabs

 

One Last Breath Chords & Tabs

Creed Chords & Tabs

Version: 5 Type: Tab 0 ratings
1 star 2 stars 3 stars 4 stars 5 stars
comments

One Last Breath Tab

   
#----------------------------------PLEASE NOTE--------------------------------#
#This file is the author's own work and represents their interpretation of the#
#song. You may only use this file for private study, scholarship, or research.#
#-----------------------------------------------------------------------------#

Band:  Creed
Title: One Last Breath
Album: Weathered

Standard Tuning EADGBe

Just listen to the song and you'll be able to get the timing and picking down, 
let me know if there are any questions or if you have any corrections about the
tab.  This is basically the way the song repeats itself, so I just tabbed out 
the main parts...this is my first tab, so bear with me.

-Levi-

lewilson@purdue.edu


Intro/Verse                                                                                  

e |--2---5---0h2p0-------------------------------------3p2----------------------
B |------------------2-3s5-3-2-3---3-2s3-----------3----------------------------
G |--------------------------------------------0-----2--------------------------
D |0---0---0---------------------------------0---0------------------------------
A |----------------0-------------2---2---0--------------------------------------
E |----------------------------------------3------------------------------------


                 A                 Bm                  G                          
[ Tab from: http://www.guitartabs.cc/tabs/c/creed/one_last_breath_tab_ver_5.html ]
e |--2-3-2-0h2p0---------------------------2-------------------3----------------
B |--------------------2-2h3p2-----------3----3-------------------3-------------
G |------------------2---------2-------4--------4------------0------0-----------
D |0---------------2-------------2---4------------4--------0----------0---------
A |--------------0-----------------2---------------------2----------------------
E |----------------------------------------------------3------------------------



Chorus

   D           A           Bm          G

e |2--2--2--2--0--0--0--0--2--2--2--2--3--3--3--3-------------------------------
B |3--3--3--3--2--2--2--2--3--3--3--3--3--3--3--3-------------------------------
G |2--2--2--2--2--2--2--2--4--4--4--4--0--0--0--0-------------------------------
D |0--0--0--0--2--2--2--2--4--4--4--4--0--0--0--0-------------------------------
A |------------0--0--0--0--2--2--2--2--2--2--2--2-------------------------------
E |------------------------------------3--3--3--3-------------------------------




Lyrics
-------------------------------------------

Please come now I think I’m falling
I’m holding on to all I think is safe
It seems I found the road to nowhere
And I’m trying to escape
I yelled back when I heard thunder
But I’m down to one last breath
And with it let me say
Let me say

Hold me now
I’m six feet from the edge and I’m thinking
That maybe six feet
Ain’t so far down

I’m looking down now that it’s over
Reflecting on all of my mistakes
I thought I found the road to somewhere
Somewhere in His grace
I cried out heaven save me
But I’m down to one last breath
And with it let me say
Let me say

Hold me now
I’m six feet from the edge and I’m thinking
That maybe six feet
Ain’t so far down

Sad eyes follow me
But I still believe there’s something left for me
So please come stay with me
‘Cause I still believe there’s something left for you and me
For you and me 
For you and me

Hold me now
I’m six feet from the edge and I’m thinking
Comments