Creed - One Last Breath Chords & Tabs

 

One Last Breath Chords & Tabs

Creed Chords & Tabs

Version: 20 Type: Tab 0 ratings
1 star 2 stars 3 stars 4 stars 5 stars
comments

One Last Breath Tab

-------------------------------------------------------------------------------
			     Six feet from the edge - Creed
-------------------------------------------------------------------------------

By:

e|-2--5--0h2-----------0----------------------------------------2--1-------------|
B|------------3----2h3----3p2h3----3--2h3--0--------------2----------------------|
G|--------------------------------------------------0--------0-------------------|
D|-0---------------------------------------------0-----0-------------------------|
A|---------------0---------------2-----------------------------------------------|
E|--------------------------------------------3----------------------------------|
[ Tab from: http://www.guitartabs.cc/tabs/c/creed/one_last_breath_tab_ver_20.html ]
e|-2--3--2--0h2p0----------------------------------------2-----------------------|
B|-----------------3--2-----------2--2h3p2------------3-----3--------------------|
G|-----------------------------2-------------------4-----------4-----------------|
D|-0------------------------2----------------4--4-----------------4--------------|
A|-----------------------0-------------------------------------------------------|
E|-------------------------------------------------------------------------------|

e|-------------2-----------------------------------------------------------------|
B|----------2-----2--------------------------------------------------------------|
G|-------0-----------0-----------------------------------------------------------|
D|----0-----------------0--------------------------------------------------------|
A|-------------------------------------------------------------------------------|
E|-3-----------------------------------------------------------------------------|
Comments