Creed - One Last Breath Chords & Tabs

 

One Last Breath Chords & Tabs

Creed Chords & Tabs

Version: 18 Type: Tab 0 ratings
1 star 2 stars 3 stars 4 stars 5 stars
comments

One Last Breath Tab

Made by: MadMax1786


Verse/Intro *clean*
e-2---5---0h2-------------------------------------------------------3-2--|
B-------------3-----2-3-3h5---5p3p2-3--0--3---2h3p0-------------3--------|
G---------------0------------------------------------0------0-----2------|
D-0-0---0-------------------------------------------------0---0----------|
A-----------------0---------0----------0-2-2--2--------------------------|
E-------------------------------------------------------3----------------|
                                                                              
[ Tab from: http://www.guitartabs.cc/tabs/c/creed/one_last_breath_tab_ver_18.html ]
e-2---3---2h3p2---------------------------------2---------------3--------|
B---------------3---------2-2h3p2-------------2---2---------------3------|
G-----------------------2---------2---0-----4-------4-0-------0-----0----|
D-0-0---0-------------2-------------4-----4-----------------0---------0--|
A-----------------4-0-------------------2-----------------2--------------|
E-------------------------------------------------------3----------------|
                                                                              
Chorus 1 *clean*
e-2------0------2------3-|
B-3------0------2------3-|
G-2------3------4------0-|
D-0------4------4------0-|
A--------4------2------2-|
E--------2-------------3-|
                    
Chorus 2 *distortion*
e------------------|
B------------------|
G-7---------4------|
D-7----4----4----5-|
A-5----4----2----5-|
E------2---------3-|
                                                                              
Bridge Intro *distortion*
e--------|
B--------|
G-4------|
D-4----5-|
A-2----5-|
E------3-|
                                         
Bridge *distortion*
e-----------|-----------|
B-----------|-----------|
G---------7-|-----7-----|
D-2---7---7-|-2---7---5-|
A-2---7---5-|-2---5---5-|
E-0---5-----|-0-------3-|
                                                                              
Outro  *clean*                                   * Play Slowy Here *
e-2---5---2h0---------------------------------------------------3---|
B-------------3-----2-3-3h5---5p3p2-3-0--3---2h3p0-------------3--3-|
G---------------0----------------------------------0--------0-------|
D-0-0---0-------------------------------------------------0---------|
A-----------------0---------0---------0-2-2--2----------------------|
E-------------------------------------------------------3-----------|
                                             
I hope you have fun with this tab. Please send an email to madmax@meng.com
if you have any comments or corrections to share. 
Thanks.
Comments