Creed - One Last Breath Chords & Tabs

 

One Last Breath Chords & Tabs

Creed Chords & Tabs

Version: 17 Type: Tab 0 ratings
1 star 2 stars 3 stars 4 stars 5 stars
comments

One Last Breath Tab

   
Band: CREED
Album: Weathered
Title: One Last Breath
Transcriber:Fernando Delgado
Tuning: Standard 
Feel free to comments in this tab


(Acoustic) intro & verses:  1 -> intro   x3->
verse1
     
|-2---5---0h2------------------------------------------------3-2--|
|------------3----2\3-3h5-5p3/2h3--0-3---2h3-0-----------3--------|
|-------------2-------------------------------0------0-----0------|
|-0-0---0------------------------------------------0--------------|
|---------------0-----0------------2---2--------------------------|
|------------------------------------------------3-----3----------|

|-2---3---2-0h2p0------------------------------2----------------3-------|
|----------------3---------2-2h3p2-----------2---2----------------3-----|
|------------------------2--------2-0------4-------4----------4-----4---|
|-0-0---0----------0---2-----------4-----4-----------4------5---------5-|
|-------------------0------------------2------------------5-------------|
|-------------------------------------------------------3---------------|
[ Tab from: http://www.guitartabs.cc/tabs/c/creed/one_last_breath_tab_ver_17.html ]
1st chorus: (clean) listen to track for exact
number of strums
    D       B      G  
|-3-3-3--0-0--0-0-0--3-3--|
|-2-2-2--0-0--0-0-0--3-3--|
|-3-3-3--3-3--4-4-4--4-4--| x2
|-0-0-0--4-4--4-4-4--5-4--|
|-0-0-0--4-4--2-2-2--5-4--|
|--------2-2--0-0-0--3-3--|

repeat  for second verse

 2nd Chorus: (Distortion)
    D5   F#5    B5     G5 
|--------------------------|    |------------------------------------|
|--------------------------|    |------------------------------------|
|-7-7-7-------4-4-4--------|    |-4-4-----------4-4------------------|
|-7-7-7--4-4--4-4-4--5-5-5-|x4  |-4-4--5-5-5-5--4-4--5-5-5-5-5-5-5-5-|
|-5-5-5--4-4--2-2-2--5-5-5-|    |-2-2--5-5-5-5--2-2--5-5-5-5-5-5-5-5-|
|--------2-2---------3-3-3-|    |------3-3-3-3-------3-3-3-3-3-3-3-3-|

 Bridge: (Distortion)
  E5
|-------------------------------------------|
|-------------------------------------------|
|------------7-7-7-7--7-7-------------------|
|-2-2--\9-/7-7-7-7-7--7-7--7-7-7\9-9--5-5-5-|
|-2-2--\9-/7-5-5-5/4--4\5--7-7-7\9-9--5-5-5-|
|-0-0--\7-/5---------------5-5-5\7-7--3-3-3-|

Play  after this then  twice and ending by
playing  till the G chord
Comments